PrimaNota.ru - самый крупный в мире бесплатный архив песенных текстов, аккордов, табулатур и нот


Boyce Avenue - Be Somebody - таба, видео

Регистрация Запомнить меня
Войти через:  Facebook Google Twitter Vk Yandex Mail.ru

Boyce Avenue - Be Somebody - таба, видео

Печатать
Просмотров: 134
---------------------------------------------------------------------------
                        Boyce Avenue - Be Somebody
---------------------------------------------------------------------------
Tabbed by: Stefan Premovic

Tuning: Standard, Capo 3rd fret

Done this all by ear, so cut me some slack when rating. :)
Enjoy playing, and point out any mistakes.


Intro:

e|-----------------------------------------------------------------|
B|-----------------3-----------------------------------------------|
G|-----0-----------------0-------------0---------------0-----------| G1
D|-----------2-----------------2-------------0---------------5-----|
A|-2---2---2---2---3---3---3---3-------------------5---5---5---5---|
E|---------------------------------3---3---3---3-------------------|

e|-----------------------------------------------------------------|
B|-----------------3-----------------------------------------------|
G|-----0-----------------0-------------0---------------0-----------| G1
D|-----------2-----------------2-------------0---------------5-----|
A|-2---2---2---2---3---3---3---3-------------------0---0---0---0---|
E|---------------------------------3---3---3---3-------------------|


Verse 1:

e|-----------------------------------------------------------------|
B|-----------------3-----------------------------------------------|
G|-----0-----------------0-------------0---------------0-----------| G1
D|-----------2-----------------2-------------0---------------5-----|
A|-2---2---2---2---3---3---3---3-------------------5---5---5---5---|
E|---------------------------------3---3---3---3-------------------|

e|-----------------------------------------------------------------|
B|-----------------3-----------------------------------------------|
G|-----0-----------------0-------------0---------------0-----------| G1
D|-----------2-----------------2-------------0---------------5-----|
A|-2---2---2---2---3---3---3---3-------------------0---0---0---0---|
E|---------------------------------3---3---3---3-------------------|


Verse 2:

e|-----------------------------------------------------------------|
B|-----------------3-----------------------------------------------|
G|-----0-----------------0-------------0---------------0-----------| G1
D|-----------2-----------------2-------------0---------------5-----|
A|-2---2---2---2---3---3---3---3-------------------5---5---5---5---|
E|---------------------------------3---3---3---3-------------------|

e|-----------------------------------------------------------------|
B|-----------------3-----------------------------------------------|
G|-----0-----------------0-------------0---------------0-----------| G1
D|-----------2-----------------2-------------0---------------5-----|
A|-2---2---2---2---3---3---3---3-------------------0---0---0---0---|
E|---------------------------------3---3---3---3-------------------|


Pre-Chorus 1:

e|-----------------------------------------------------------------|
B|-----------------3-----------------------------------------------|
G|-----0-----------------0-------------0---------------0-----------| G1
D|-----------2-----------------2-------------0---------------5-----|
A|-2---2---2---2---3---3---3---3-------------------5---5---5---5---|
E|---------------------------------3---3---3---3-------------------|
 | p.m.                                                            |
e|-----------------------------------------------------------------|
B|-----------------------------------------------------------------|
G|-----------------------------------------------------------------| G2
D|-2---2---2---2---2---2---2---2-------------------5---5---5---5---|
A|-2---2---2---2---3---3---3---3---2---2---2---2---5---5---5---5---|
E|---------------------------------3---3---3---3-------------------|


e|-----------------------------------------------------------------|
B|-----------------3-----------------------------------------------|
G|-----0-----------------0-------------0---------------0-----------| G1
D|-----------2-----------------2-------------0---------------5-----|
A|-2---2---2---2---3---3---3---3-------------------0---0---0---0---|
E|---------------------------------3---3---3---3-------------------|
 | p.m.                                                            |
e|-----------------------------------------------------------------|
B|-----------------------------------------------------------------|
G|-----------------------------------------------------------------| G2
D|-2---2---2---2---2---2---2---2-------------------0---0---0---0---|
A|-2---2---2---2---3---3---3---3---2---2---2---2---0---0---0---0---|
E|---------------------------------3---3---3---3-------------------|


Chorus 1(both guitars strum, but each can find different strumming pattern):
   
   C               G               Em              D
e|-x---------------x---------------x---------------x---------------|
B|-1---------------0---------------0---------------3---------------|
G|-0---------------0---------------0---------------2---------------| G1,G2 x4
D|-2---------------0---------------2---------------0---------------|
A|-3---------------2---------------2---------------0---------------|
E|-----------------3---------------x-------------------------------|
   C(once)
e|-x---------------------------------------------------------------|
B|-1---------------------------------------------------------------|
G|-0---------------------------------------------------------------| G1,G2
D|-2---------------------------------------------------------------|
A|-3---------------------------------------------------------------|
E|-----------------------------------------------------------------|


Verse 3(G2 strumming):

e|-----------------------------------------------------------------|
B|-----------------3-----------------------------------------------|
G|-----0-----------------0-------------0---------------0-----------| G1
D|-----------2-----------------2-------------0---------------5-----|
A|-2---2---2---2---3---3---3---3-------------------5---5---5---5---|
E|---------------------------------3---3---3---3-------------------|
 | Em              C               G               G5              |
e|-x---------------x---------------x---------------x---------------|
B|-0---------------1---------------0---------------3---------------|
G|-0---------------0---------------0---------------0---------------| G2
D|-2---------------2---------------0---------------5---------------|
A|-2---------------3---------------2---------------5---------------|
E|-x-------------------------------3---------------x---------------|


e|-----------------------------------------------------------------|
B|-----------------3-----------------------------------------------|
G|-----0-----------------0-------------0---------------0-----------| G1
D|-----------2-----------------2-------------0---------------5-----|
A|-2---2---2---2---3---3---3---3-------------------0---0---0---0---|
E|---------------------------------3---3---3---3-------------------|
 | Em              C               G               D               |
e|-x---------------x---------------x---------------x---------------|
B|-0---------------1---------------0---------------3---------------|
G|-0---------------0---------------0---------------2---------------| G2
D|-2---------------2---------------0---------------0---------------|
A|-2---------------3---------------2---------------0---------------|
E|-x-------------------------------3-------------------------------|


Verse 4 - same as Verse 3

Pre-Chorus 2:

   Em              C               G               G5              
e|-x---------------x---------------x---------------x---------------|
B|-0---------------1---------------0---------------3---------------|
G|-0---------------0---------------0---------------0---------------| G1
D|-2---------------2---------------0---------------5---------------|
A|-2---------------3---------------2---------------5---------------|
E|-x-------------------------------3---------------x---------------|
 | p.m.                                                            |
e|-----------------------------------------------------------------|
B|-----------------------------------------------------------------|
G|-----------------------------------------------------------------| G2
D|-2---2---2---2---2---2---2---2-------------------5---5---5---5---|
A|-2---2---2---2---3---3---3---3---2---2---2---2---5---5---5---5---|
E|---------------------------------3---3---3---3-------------------|

   Em              C               G           D 
e|-x---------------x---------------x---x---x---x---x---x---x---x---|
B|-0---------------1---------------0---0---0---3---3---3---3---3---|
G|-0---------------0---------------0---0---0---2---2---2---2---2---| G1
D|-2---------------2---------------0---0---0---0---0---0---0---0---|
A|-2---------------3---------------2---2---2---0---0---0---0---0---|
E|-x-------------------------------3---3---3-----------------------|
 | p.m.                                                            |
e|-----------------------------------------------------------------|
B|-----------------------------------------------------------------|
G|-----------------------------------------------------------------| G2
D|-2---2---2---2---2---2---2---2---------------0---0---0---0---0---|
A|-2---2---2---2---3---3---3---3---2---2---2---0---0---0---0---0---|
E|---------------------------------3---3---3-----------------------|


Chorus 2 - same as Chorus 1

Bridge(G2 strumming):

e|-----------------------------------------------------------------|
B|-------------------------3-------------------------------3-------|
G|-------0-----------2-------------------0-----------0-------------| G1
D|-----------------------------------------------------------------|
A|-2---2---2---0---0---0---0---0--/5---5---5-\-3---3---3---3---3---|
E|-----------------------------------------------------------------|
 | Em          D                   G           C                   |
e|-x-----------x-------------------x-----------x-------------------|
B|-0-----------3-------------------3-----------1-------------------|
G|-0-----------2-------------------4-----------0-------------------| G2
D|-2-----------0-------------------5-----------2-------------------|
A|-2-----------0-------------------5-----------3-------------------|\
E|-x-------------------------------x-------------------------------| \ 
                                                                      x2
e|-----------------------------------------------------------------| /
B|-------------------------3---------------------------------------|/
G|-------0-----------2-------------------0-----------0-------------| G1
D|---------------------------------------------------------2-------|
A|-2---2---2---0---0---0---0---0---------------3---3---3---3---3---|
E|---------------------------------3---3---3-----------------------|
 | Em          D                   G           C                   |
e|-x-----------x-------------------x-----------x-------------------|
B|-0-----------3-------------------0-----------1-------------------|
G|-0-----------2-------------------0-----------0-------------------| G2
D|-2-----------0-------------------0-----------2-------------------|
A|-2-----------0-------------------2-----------3-------------------|
E|-x-------------------------------3-------------------------------|


Pre-Chorus 3:

   Em              C               G               G5              
e|-x---------------x---------------x---------------x---------------|
B|-0---------------1---------------0---------------3---------------|
G|-0---------------0---------------0---------------0---------------| G1
D|-2---------------2---------------0---------------5---------------|
A|-2---------------3---------------2---------------5---------------|
E|-x-------------------------------3---------------x---------------|

   Em              C               G               D              
e|-x---------------x---------------x---------------x---------------|
B|-0---------------1---------------0---------------3---------------|
G|-0---------------0---------------0---------------2---------------| G1
D|-2---------------2---------------0---------------0---------------|
A|-2---------------3---------------2---------------0---------------|
E|-x-------------------------------3-------------------------------|
 |                            p.m. v   v     ^ v ^ v   v     ^ v ^ |
e|---------------------------------x---x-----x-x-x-x---x-----x-x-x-|
B|---------------------------------0---0-----0-0-0-3---3-----3-3-3-|
G|---------------------------------0---0-----0-0-0-2---2-----2-2-2-| G2
D|---------------------------------0---0-----0-0-0-0---0-----0-0-0-|
A|---------------------------------2---2-----2-2-2-0---0-----0-0-0-|
E|---------------------------------3---3-----3-3-3-----------------|


Chorus 3:

   C               G               Em              D
e|-x---------------x---------------x---------------x---------------|
B|-1---------------0---------------0---------------3---------------|
G|-0---------------0---------------0---------------2---------------| G1,G2 x8
D|-2---------------0---------------2---------------0---------------|
A|-3---------------2---------------2---------------0---------------|
E|-----------------3---------------x-------------------------------|
   C(once)
e|-x-----------------------------------------------------------x---|
B|-1-----------------------------------------------------------x---|
G|-0-----------------------------------------------------------x---| G1,G2
D|-2-----------------------------------------------------------x---|
A|-3-----------------------------------------------------------x---|
E|-------------------------------------------------------------x---|


************************************

| /     slide up
| \     slide down
| x     Mute note
| v     Strum down
| ^     Strum up
| p.m.  Palm mute

************************************

/Verse 1/
My head feels tangled up
like the headphones in my pocket
Two words and you got me
Two nights and you told me that

/Verse2/
Once the time is counting down,
it's impossible to stop it
Three words that we need to save
Three weeks till you move away

/Pre-Chorus 1/
So go, go oh oh oh oh oh
Your heart has to be followed
Woah oh oh oh oh oh oh

/Chorus 1/
'Cause we (oh oh oh) got a dream (oh oh oh)
Gotta be somebody, be someone
'Cause we (oh oh oh) got a dream (oh oh oh)
Gotta be somebody, be someone
So please, be somebody with me

/Verse 3/
Piles of magazines left from two months ago
I'm clinging to old news
Memories I'm scared to loose

/Verse 4/
Now I find reminders down the sofa and under the bed
Three words could've made you stay
Three words that I left to late

/Pre-Chorus 2/
So go, go oh oh oh oh oh
Your heart has to be followed
Woah oh oh oh oh oh

/Chorus 2/
'Cause we (oh oh oh) got a dream (oh oh oh)
Gotta be somebody, be someone
'Cause we (oh oh oh) got a dream (oh oh oh)
Gotta be somebody, be someone
So please, be somebody with me

/Bridge/
If you feel like running
The grass is greener inside your heart
And I'll be there if it falls apart
Love who you're becoming
Sometimes we win but sometimes we fall
Story still remains untold

/Pre-Chorus 3/
So go, go oh oh oh oh oh
Your heart has to be followed
Woah oh oh oh oh oh

/Chorus 3/
'Cause we (oh oh oh) got a dream (oh oh oh)
Gotta be somebody, be someone
'Cause we (oh oh oh) got a dream (oh oh oh)
Gotta be somebody, be someone
'Cause we (oh oh oh) got a dream (oh oh oh)
Gotta be somebody, be someone 
'Cause we (oh oh oh) got a dream (oh oh oh)
Gotta be somebody, be someone
So please, be somebody with me
Добавлено: 10.04.2016
Другие материалы по этой песне:
  • Аккорды и текст

Страница создана 10.04.2016
http://primanota.ru/boyce-avenue/be-somebody-chords.htm
Привет, Гость.
Предлагаем пройти революционный курс по гитаре.
Подарок от PrimaNota.Ru, забирай!