PrimaNota.ru - самый крупный в мире бесплатный архив песенных текстов, аккордов, табулатур и нот


Bowling For Soup - Love Goes Boom - текст песни, таба, видео

Регистрация Запомнить меня
Войти через:  Facebook Google Twitter Vk Yandex Mail.ru

Bowling For Soup - Love Goes Boom - текст песни, таба, видео

Печатать
Просмотров: 142
-----------------------------------------------------------------------------
                         LOVE GOES BOOM - Bowling For Soup
-----------------------------------------------------------------------------
Tabbed by: Pemp
Email: carl_johnsen@msn.com

Tuning: normal tuning: EADGBE


Intro 1x (Palm muted but gets louder)
e|--------------------------------------------------------------------------|
B|--------------------------------------------------------------------------|
G|-3-3-3-3-3-3-3-3-3-3-3-3-3-3-3-3-3-3--------------------------------------|
D|-3-3-3-3-3-3-3-3-3-3-3-3-3-3-3-3-3-3--------------------------------------|
A|-1-1-1-1-1-1-1-1-1-1-1-1-1-1-1-1-1-1--------------------------------------|
E|--------------------------------------------------------------------------|

Verse 1 x2                        (find out strumming yourself..)
e|--------------------------------------------------------------------------|
B|--------------------------------------------------------------------------|
G|--8-x-8-8-x-8-x--------------5-x-5-8-x-8----------------------------------|
D|--8-x-8-8-x-8-x-5-x-5-3-x-3--5-x-5-8-x-6-8-x-8-3-x-3----------------------|
A|--6-x-6-6-x-6-x-5-x-5-3-x-3--3-x-3-6-x-6-8-x-8-3-x-3----------------------|
E|----------------3-x-3-1-x-1--------------6-x-6-1-x-1----------------------|
''S-s-s-saw you in december...''

Pre-Chorus x4                   (Palm Muted)
e|--------------------------------------------------------------------------|
B|--------------------------------------------------------------------------|
G|-3-3-3-3-3-3-3-3-8-8-8-8-8-8-8-8------------------------------------------|
D|-3-3-3-3-3-3-3-3-8-8-8-8-8-8-8-8-5-5-5-5-5-5-5-5-3-3-3-3-3-3-3-3----------|
A|-1-1-1-1-1-1-1-1-6-6-6-6-6-6-6-6-5-5-5-5-5-5-5-5-3-3-3-3-3-3-3-3----------|
E|---------------------------------3-3-3-3-3-3-3-3-1-1-1-1-1-1-1-1----------|

Chorus: 2 x
e|--------------------------------------------------------------------------|
B|--------------------------------------------------------------------------|
G|-8-----3------------------------------------------------------------------|
D|-8-x16-3-x16--------------------------------------------------------------|
A|-6-----1------------------------------------------------------------------|
E|--------------------------------------------------------------------------|

Guitar 2 x4
e|--------------------------------------------------------------------------|
B|--------------------------------------------------------------------------|
G|-8-7-8-7-10-8-7-8---------------------------------------------------------|
D|-x-x-x-x-x--x-x-x---------------------------------------------------------|
A|-6-5-6-5-8--6-5-6---------------------------------------------------------|
E|--------------------------------------------------------------------------|

Verse 2                         (find out strumming yourself..)
e|--------------------------------------------------------------------------|
B|--------------------------------------------------------------------------|
G|--8-x-8-8-x-8-x--------------5-x-5-8-x-8----------------------------------|
D|--8-x-8-8-x-8-x-5-x-5-3-x-3--5-x-5-8-x-6-5-x-5-3-x-3----------------------|
A|--6-x-6-6-x-6-x-5-x-5-3-x-3--3-x-3-6-x-6-5-x-5-3-x-3----------------------|
E|----------------3-x-3-1-x-1--------------3-x-3-1-x-1----------------------|

e|--------------------------------------------------------------------------|
B|--------------------------------------------------------------------------|
G|-8-8-8-8-8-8-8-8-3-3-3-3-3-3-3-3-----8----5----3--------------------------|
D|-8-8-8-8-8-8-8-8-3-3-3-3-3-3-3-3 x2 -8 x8-5 x8-3x8 -----------------------|
A|-6-6-6-6-6-6-6-6-1-1-1-1-1-1-1-1-----6----3----1--------------------------|
E|--------------------------------------------------------------------------|

Pre-Chorus x4                   (Palm Muted)
e|--------------------------------------------------------------------------|
B|--------------------------------------------------------------------------|
G|-3-3-3-3-3-3-3-3-8-8-8-8-8-8-8-8------------------------------------------|
D|-3-3-3-3-3-3-3-3-8-8-8-8-8-8-8-8-5-5-5-5-5-5-5-5-3-3-3-3-3-3-3-3----------|
A|-1-1-1-1-1-1-1-1-6-6-6-6-6-6-6-6-5-5-5-5-5-5-5-5-3-3-3-3-3-3-3-3----------|
E|---------------------------------3-3-3-3-3-3-3-3-1-1-1-1-1-1-1-1----------|

Chorus: x2  Guitar 1
e|--------------------------------------------------------------------------|
B|--------------------------------------------------------------------------|
G|-8-----3------------------------------------------------------------------|
D|-8-x16-3-x16--------------------------------------------------------------|
A|-6-----1------------------------------------------------------------------|
E|--------------------------------------------------------------------------|

Guitar 2 x4
e|--------------------------------------------------------------------------|
B|--------------------------------------------------------------------------|
G|-8-7-8-7-10-8-7-8---------------------------------------------------------|
D|-x-x-x-x-x--x-x-x---------------------------------------------------------|
A|-6-5-6-5-8--6-5-6---------------------------------------------------------|
E|--------------------------------------------------------------------------|

Bridge: Guitar 1 
e|--------------------------------------------------------------------------|
B|--------------------------------------------------------------------------|
G|-8~-----------------------------------------------------------------------|
D|-8~-----------------------------------------------------------------------|
A|-6~-----------------------------------------------------------------------|
E|--------------------------------------------------------------------------|

Guitar 2 (Palm Muted)
e|--------------------------------------------------------------------------|
B|--------------------------------------------------------------------------|
G|-8------------5-----10-----8-----------8-----------8----------------------|
D|-8 x16-8------5 x16-10 x16-8 x16-8-----8 x16-5-----8 x16-5-----3~---------|
A|-6-----8 x16--3-----8------6-----8 x16-6-----5 x16-6-----5 x16-3~---------|
E|-------6-------------------------6-----------3-----------3-----1~---------|

Outro
e|--------------------------------------------------------------------------|
B|--------------------------------------------------------------------------|
G|-3---8--------------------------------------------------------------------|
D|-3x8-8x8-5---3~-----------------------------------------------------------|
A|-1---6---5x8-3~-----------------------------------------------------------|
E|---------3---1~-----------------------------------------------------------|

Chorus:   Guitar 1     Play as long as needed
e|--------------------------------------------------------------------------|
B|--------------------------------------------------------------------------|
G|-8-----3------------------------------------------------------------------|
D|-8-x16-3-x16--------------------------------------------------------------|
A|-6-----1------------------------------------------------------------------|
E|--------------------------------------------------------------------------|

Guitar 2               Play as long as needed
e|--------------------------------------------------------------------------|
B|--------------------------------------------------------------------------|
G|-8-7-8-7-10-8-7-8---------------------------------------------------------|
D|-x-x-x-x-x--x-x-x---------------------------------------------------------|
A|-6-5-6-5-8--6-5-6---------------------------------------------------------|
E|--------------------------------------------------------------------------|

Both Guitars end on:
e|--------------------------------------------------------------------------|
B|--------------------------------------------------------------------------|
G|-8~-----------------------------------------------------------------------|
D|-8~-----------------------------------------------------------------------|
A|-6~-----------------------------------------------------------------------|
E|--------------------------------------------------------------------------|

| /  slide up
| \  slide down
| h  hammer-on
| p  pull-off
| ~  let ring
| +  harmonic
| x  Mute note
=============================================================================
Добавлено: 24.05.2012
Другие материалы по этой песне:
  • Аккорды и текст

Страница создана 24.05.2012
http://primanota.ru/bowling-for-soup/love-goes-boom-chords.htm
Привет, Гость.
Предлагаем пройти революционный курс по гитаре.
Подарок от PrimaNota.Ru, забирай!