PrimaNota.ru - самый крупный в мире бесплатный архив песенных текстов, аккордов, табулатур и нот


Bowling For Soup - Love Sick Stomach Ache - таба, бас-таба, видео

Регистрация Запомнить меня
Войти через:  Facebook Google Twitter Vk Yandex Mail.ru

Bowling For Soup - Love Sick Stomach Ache - таба, бас-таба, видео

Печатать
Просмотров: 239
Уроки эстрадного вокала в Санкт-Петербурге
-----------------------------------------------------------------
Love Sick Stomach Ache - Bowling For Soup
-----------------------------------------------------------------
Tabbed by: Bair
Email: bair_morritt@hotmail.com
Tuning: Standard

Intro/ Verse:
e|---------------------------------------------------------------|
B|---------------------------------------------------------------|
G|--------------------------------77777777-----------------------|
D|--77777777--77777777--55555555--77777777--(X5)-----------------|
A|--77777777--77777777--55555555--55555555-----------------------|
E|--55555555--44444444--33333333---------------------------------|
"I woke up today, that was my first mistake"

Pre- Chorus:
e|--------------------------------------------------------------------|
B|--------------------------------------------------------------------|
G|----------------------------------------------7777------------------|
D|--77777777--55-6--77777777--(X2)--5555555555--7777--77777777--7777--|
A|--77777777--55-6--77777777--------5555555555--5555--77777777--7777--|
E|--55555555--33-4--55555555--------3333333333--------55555555--4444--|
"Hold your head up and face the day"

e|---------------------------------------------------------------|
B|---------------------------------------------------------------|
G|--------------------------4--2-----2---------------------------|
D|--5-55--7-77--5-55--7-77--4--2--4--2---------------------------|
A|--5-55--7-77--5-55--7-77--2--0--4--0---------------------------|
E|--3-33--5-55--3-33--5-55--------2------------------------------|
"without my hand to hold"

Chorus:
e|---------------------------------------------------------------|
B|---------------------------------------------------------------|
G|--------------------2222222222222222---------------------------|
D|--2222222222222222--2222222222222222--(X2)---------------------|
A|--2222222222222222--0000000000000000---------------------------|
E|--0000000000000000---------------------------------------------|
"Popsicle love and pie crust promises"

Post- Chorus:
e|---------------------------------------------------------------|
B|---------------------------------------------------------------|
G|--4--2-----2---------------------------------------------------|
D|--4--2--4--2---------------------------------------------------|
A|--2--0--4--0---------------------------------------------------|
E|--------2------------------------------------------------------|
"This is all I ever wanted, I can take the heartahce"

Bridge:
e|---------------------------------------------------------------|
B|---------------------------------------------------------------|
G|--22222222------------(X2)--22222222----------2--4--2----------|
D|--22222222--22222222--------22222222--444444--2--4--2----------|
A|--00000000--22222222--------00000000--444444--0--2--0----------|
E|------------00000000------------------222222-------------------|
"And this much more better heated"

Outro:
e|---------------------------------------------------------------|
B|---------------------------------------------------------------|
G|--------------------2222222222222222---------------------------|
D|--2222222222222222--2222222222222222--(X6)--2------------------|
A|--2222222222222222--0000000000000000--------2------------------|
E|--0000000000000000--------------------------0------------------|

GOD DAMMIT...this song SUCKED to tab, no wonder no ones else did it...awell, its done 
so am I, finally finished the album :)
Добавлено: 29.06.2012
Другие материалы по этой песне:
  • Аккорды и текст

Страница создана 24.06.2012
http://primanota.ru/bowling-for-soup/love-sick-stomach-ache-chords.htm
Привет, Гость.
Предлагаем пройти революционный курс по гитаре.
Подарок от PrimaNota.Ru, забирай!