PrimaNota.ru - самый крупный в мире бесплатный архив песенных текстов, аккордов, табулатур и нот


Bowling For Soup - All Figured Out - текст песни, бас-таба, видео

Регистрация Запомнить меня
Войти через:  Facebook Google Twitter Vk Yandex Mail.ru

Bowling For Soup - All Figured Out - текст песни, бас-таба, видео

Печатать
Просмотров: 110
Intro (bass enters at 0:04)
G:--------|  |----------------------------------|
D:--------|  |---------7-5---------4-7----------|
A:--------|x1|-----4-7-----7-6-5--5-------------|x2
E:-0-2-4--|  |-5--5--------------------0-0-2-4--|

Verse 1
G:----------------------------------|
D:---------7-5---------4-7----------|
A:-----4-7-----7-6-5--5-------------|x1
E:-5--5--------------------0-0-2-4--|

G:----------------------------------|
D:---------------------4-7----------|
A:-----4-7-----4-7-5~---------------|x3
E:-5~------5-5-------------0-0-2-4--|

Pre Chorus
G:------------------------------------------------------------------|
D:------------------------------------------------------------------|
A:---------4~----------4~--5~------5-5~----5-4-5-6-7-7~-------------|x1
E:-2~--5~------2~--5~----------5~--------------------------0-0-2-4--|

G:------------------------------------------------------------------|
D:------------------------------------------------------------------|
A:---------4~----------4~--5~------5~--4~--5~--6~--7-7~----7-5-4----|x1
E:-2~--5~------2~--5~----------5~--------------------------------7--|

Chorus 1
G:--------------------------------------------------|
D:--------------------------------------------------|
A:-----4-7-----4-7-----1-4-----1-4------------------|x1
E:-5-5-----5-5-----2-2-----2-2-----3-3-3-3-0-0-2-4--|

G:----------------------------------|
D:---------7-5---------4-7----------|
A:-----4-7-----7-6-5-5--------------|x2
E:-5-5---------------------0-0-2-4--|

Verse 2
G:----------------------------------|
D:---------------------4-7----------|
A:-----4-7-----4-7-5-5--------------|x1
E:-5~------5~--------------0-0-2-4--|

G:----------------------------------|
D:---------------------4-7----------|
A:-----4-7-----4-7-5-5--------------|x3
E:-5-5-----5-5-------------0-0-2-4--|

Repeat:
Pre Chorus

Chorus 2
G:------------------------------------------------------------------|
D:------------------------------------------------------------------|
A:-----4-7-----4-7-----1-4-----1-4---------------------4-7-----1-4--|x1
E:-5-5-----5-5-----2-2-----2-2-----3-3-3-3-0-0-2-4-5-5-----2-2------|

G:----------------------------------|
D:----------------------------------|
A:---------------------4-7----------|x1
E:-3-3-3-3-0-0-2-4-5-5-----5--------|

Bridge
G:----------------------------------|
D:---------7-5---------4-7----------|
A:-----4-7-----7-6-5--5-------------|x4
E:-5--5--------------------0-0-2-4--|

Verse 3
G:----------------------------------|
D:---------------------4-7----------|
A:-----4-7-----4-7-5-5--------------|x1
E:-5~------5~--------------0-0-2-4--|

G:----------------------------------|
D:---------------------4-7----------|
A:-----4-7-----4-7-5-5--------------|x2
E:-5-5-----5-5-------------0-0-2-4--|

G:----------------------------------|
D:---------------------4-7----------|
A:-----4-7-----4-7-5-5-----7-5-4----|x1
E:-5-5-----5-5-------------------7--|

Chorus 3
G:--------------------------------------------------|
D:--------------------------------------------------|
A:-----4-7-----4-7-----1-4-----1-4------------------|x5
E:-5-5-----5-5-----2-2-----2-2-----3-3-3-3-0-0-2-4--|

Chorus 1
G:--------------------------------------------------|
D:-------------------------4-2----------------------|
A:-----4-7-----4-7-----1-2-----4-2------------------|x1
E:-5-5-----5-5-----2-2-------------3-3---3-0-0-2-4--|

Chorus 1
G:--------------------------------------------------|  |--------------------------|
D:--------------------------------------------------|  |--------------------------|
A:-----4-7-----4-7-----1-4-----1-4------------------|x2|--------------------------|x1
E:-5-5-----5-5-----2-2-----2-2-----3-3-3-3-0-0-2-4--|  |-5~~~~~~~-----------------|
Добавлено: 09.09.2013
Другие материалы по этой песне:
  • Аккорды и текст

Страница создана 04.06.2012
http://primanota.ru/bowling-for-soup/all-figured-out-chords.htm
Привет, Гость.
Предлагаем пройти революционный курс по гитаре.
Подарок от PrimaNota.Ru, забирай!