PrimaNota.ru - самый крупный в мире бесплатный архив песенных текстов, аккордов, табулатур и нот


Bowling For Soup - Assman - текст песни, таба, видео

Регистрация Запомнить меня
Войти через:  Facebook Google Twitter Vk Yandex Mail.ru

Bowling For Soup - Assman - текст песни, таба, видео

Печатать
Просмотров: 130
-----------------------------------------------------------------
Assman - Bowling For Soup
-----------------------------------------------------------------
Tabbed by: Bair
Email: bair_morritt@hotmail.com
Tuning: Standard

**No one had tab this yet so I figured I would do it. Very easy and repetitive.**

Intro:
e|--------------------------------------------|
B|--------------------------------------------|
G|-5-555-5-5-5-5------------------------------|
D|-5-555-5-5-5-5--5-555-5-5-5-5-(Pick-Slide)--|
A|-3-333-3-3-3-3--5-555-5-5-5-5---------------|
E|----------------3-333-3-3-3-3---------------|

Verse:
e|------------------------------------------------|
B|------------------------------------------------|
G|--55555555------------55555555------------------|  X2
D|--55555555--55555555--55555555--5-55-5-55-5-33--|
A|--33333333--55555555--33333333--5-55-5-55-5-33--|
E|------------33333333------------3-33-3-33-3-11--|
"I tried to break into your house...."

Chorus:
e|------------------------------------------|
B|------------------------------------------|
G|--5----------77--5----------77------------|
D|--5--55--33--77--5--55--33--77------------|
A|--3--55--33--55--3--55--33--55------------|
E|-----33--11---------33--11----------------|
"I didn't know it, I didn't know it."

e|------------------------------------------|
B|------------------------------------------|
G|--5----------77--5----------77------------|
D|--5--55--33--77--5--55--33--77------------|
A|--3--55--33--55--3--55--33--55------------|
E|-----33--11---------33--11----------------|
"I didn't know it, I didn't know it."

-Then Verse
-Then Chorus

Interlude:
e|------------------------------------------|
B|------------------------------------------|
G|------------------------------------------|
D|--7777--5555--3333--2222-(X4)-------------|
A|--7777--5555--3333--2222------------------|
E|--5555--3333--1111--0000------------------|
"Why don't you be my one and only friend."

-Then Intro
-Then Verse
-Then Chorus
-Then Interlude
-Then Intro
-Then Interlude (X2)

Outro:
e|------------------------------------------|
B|------------------------------------------|
G|------------------------------------------|
D|--7777--5555--3333--2222----2-------------|
A|--7777--5555--3333--2222----2-------------|
E|--5555--3333--1111--0000----0-------------|
Добавлено: 15.07.2013
Другие материалы по этой песне:
  • Аккорды и текст

Страница создана 05.04.2012
http://primanota.ru/bowling-for-soup/assman-chords.htm
Привет, Гость.
Предлагаем пройти революционный курс по гитаре.
Подарок от PrimaNota.Ru, забирай!