PrimaNota.ru - самый крупный в мире бесплатный архив песенных текстов, аккордов, табулатур и нот


Bowie, David - Knock On Wood - текст песни, таба, видео

Регистрация Запомнить меня
Войти через:  Facebook Google Twitter Vk Yandex Mail.ru

Bowie, David - Knock On Wood - текст песни, таба, видео

Печатать
Просмотров: 224
Уроки эстрадного вокала в Санкт-Петербурге
DAVID BOWIE
KNOCK ON WOOD (LIVE VERSION)
FROM THE DAVID BOWIE SINGLE COLLECTION
--------------------------------------

Tabbed by AAuuddee@aol.com


NOTE:there can have some variations sometimes
that are not always easy to tab precisely. G you
just have to listen to the song carefully and it'll
be alright...


INTRO:
  E5 G5  A5  B5   D5   B5 A5  G5
----------------------------------
----------------------------------
----------------------------------
--2---5---7---9---12---9---7---5--
--2---5---7---9---12---9---7---5--
--0---3---5---7---10---7---5---3--


PART1:
  A5
-----------------------------------------------
-----------------------------------------------
--2--2--2---2--2--2--2---2--2--2---2--2--2--2--
--2--2--4---2--2--2--4---2--2--4---2--2--2--4--
--0--0--0---0--0--0--0---0--0--0---0--0--0--0--
-----------------------------------------------

  A5
-----------------------------------------------
-----------------------------------------------
--2--2--2---2--2--2--2---2--2--2---2--2--2--2--
--2--2--4---2--2--2--4---2--2--4---2--2--2--4--
--0--0--0---0--0--0--0---0--0--0---0--0--0--0--
-----------------------------------------------

  E5
-----------------------------------------------
-----------------------------------------------
-----------------------------------------------
--2--2--2---2--2--2--2---2--2--2---2--2--2--2--
--2--2--4---2--2--2--4---2--2--4---2--2--2--4--
--0--0--0---0--0--0--0---0--0--0---0--0--0--0--

  E5
-----------------------------------------------
-----------------------------------------------
-----------------------------------------------
--2--2--2---2--2--2--2---2--2--2---2--2--2--2--
--2--2--4---2--2--2--4---2--2--4---2--2--2--4--
--0--0--0---0--0--0--0---0--0--0---0--0--0--0--

  A5
-----------------------------------------------
-----------------------------------------------
--2--2--2---2--2--2--2---2--2--2---2--2--2--2--
--2--2--4---2--2--2--4---2--2--4---2--2--2--4--
--0--0--0---0--0--0--0---0--0--0---0--0--0--0--
-----------------------------------------------

  A5
-----------------------------------------------
-----------------------------------------------
--2--2--2---2--2--2--2---2--2--2---2--2--2--2--
--2--2--4---2--2--2--4---2--2--4---2--2--2--4--
--0--0--0---0--0--0--0---0--0--0---0--0--0--0--
-----------------------------------------------

  E5
------------------------
------------------------
------------------------
--2--2--2---2--2--2--2--
--2--2--4---2--2--2--4--
--0--0--0---0--0--0--0--
 
  A5
------------------------
------------------------
--2--2--2---2--2--2--2--
--2--2--4---2--2--2--4--
--0--0--0---0--0--0--0--
------------------------

  E5
------------------------
------------------------
------------------------
--2--2--2---2--2--2--2--
--2--2--4---2--2--2--4--
--0--0--0---0--0--0--0--
 
  A5
------------------------
------------------------
--2--2--2---2--2--2--2--
--2--2--4---2--2--2--4--
--0--0--0---0--0--0--0--
------------------------

  E5 G5  A5  B5   D5   B5 A5  G5
----------------------------------
----------------------------------
----------------------------------
--2---5---7---9---12---9---7---5--
--2---5---7---9---12---9---7---5--
--0---3---5---7---10---7---5---3--


PART2: same as part1


BRIDGE:
 C#5 Eb5  E5  C5       B5
-----------------------------
-----------------------------
--6---8---9------------------
--6---8---9---10--10---9--9--
--4---6---7---10--10---9--9--
--------------8---8----7--7--


PART3: same as the other parts


ENDING:

  E5                    A5
----------------------------------------------
----------------------------------------------
------------------------2--2--2---2--2--2--2-- repeat
--2--2--2---2--2--2--2--2--2--4---2--2--2--4--
--2--2--4---2--2--2--4--0--0--0---0--0--0--0--
--0--0--0---0--0--0--0------------------------

  E5 G5  A5  B5   D5   B5 A5  G5  E5
--------------------------------------
--------------------------------------
--------------------------------------
--2---5---7---9---12---9---7---5---2--
--2---5---7---9---12---9---7---5---2--
--0---3---5---7---10---7---5---3---0--


ENJOY!!!
     
Добавлено: 26.11.2013
Другие материалы по этой песне:
  • Аккорды и текст

Страница создана 17.05.2012
http://primanota.ru/bowie-david/knock-on-wood-chords.htm
Привет, Гость.
Предлагаем пройти революционный курс по гитаре.
Подарок от PrimaNota.Ru, забирай!