PrimaNota.ru - самый крупный в мире бесплатный архив песенных текстов, аккордов, табулатур и нот


Bonobo - Dismantling Frank - бас-таба, видео

Регистрация Запомнить меня
Войти через:  Facebook Google Twitter Vk Yandex Mail.ru

Bonobo - Dismantling Frank - бас-таба, видео

Печатать
Просмотров: 135
Bonobo - Dismantling Frank
Tabbed by alex


Although this song is all instumentle i have broken it down into verse chorus and bridge.

verse

In the first verse the bass plays 2 of the first line and 2 of the second. Later on it 
plays 3 of the first and one one of the second.

G|--------4-----2------------------|
D|------------4-------4------------|
A|--2------------------------5-----|
E|---------------------------------|

G|------------5/7---------------|
D|--------4----------4----------|
A|--2---------------------------|
E|------------------------------|

Chorus

G|-------------------------|-------------------------|
D|-------------0-----------|--------------2----------|
A|-------------------------|--2----------------------|
E|--3----------------------|-------------------------|

Bridge

G|------------------------|----------------------|
D|------------------------|----------------------|
A|--2-2-2-2--2-2-2-2-2----|--2-2-2-2--4-4-4-4----|
E|------------------------|----------------------|
Добавлено: 03.01.2014
Другие материалы по этой песне:
  • Аккорды и текст

Страница создана 03.01.2014
http://primanota.ru/bonobo/dismantling-frank-chords.htm
Привет, Гость.
Предлагаем пройти революционный курс по гитаре.
Подарок от PrimaNota.Ru, забирай!