PrimaNota.ru - самый крупный в мире бесплатный архив песенных текстов, аккордов, табулатур и нот


Bonobo - Walk In The Sky - текст песни, бас-таба, видео

Регистрация Запомнить меня
Войти через:  Facebook Google Twitter Vk Yandex Mail.ru

Bonobo - Walk In The Sky - текст песни, бас-таба, видео

Печатать
Просмотров: 204
Авторы музыки: Simon Green
Авторы текста: Bajka Pluwatsch
G-----------------------------------------------------------|
D-----------------------------------------------------------|
A------5----------3-----------------------------------------|
E---5----------3---------5----/5----0-----------------------|

G-----------------------------------------------------------|
D-----------------------------------------------------------|
A------5----------3-----------3/5---0-----------------------|
E---5----------3---------5----------------------------------|


The bassline continues the same throughout the song. 


Tabbed by:

Ahsan Ashraf
Добавлено: 14.01.2014
Другие материалы по этой песне:
  • Аккорды и текст

Страница создана 21.11.2013
http://primanota.ru/bonobo/walk-in-the-sky-chords.htm
Привет, Гость.
Предлагаем пройти революционный курс по гитаре.
Подарок от PrimaNota.Ru, забирай!