PrimaNota.ru - самый крупный в мире бесплатный архив песенных текстов, аккордов, табулатур и нот


Bohse Onkelz - Viva Los Tioz - текст песни, таба, видео

Регистрация Запомнить меня
Войти через:  Facebook Google Twitter Vk Yandex Mail.ru

Bohse Onkelz - Viva Los Tioz - текст песни, таба, видео

Печатать
Просмотров: 211
Уроки эстрадного вокала в Санкт-Петербурге
Intro: (clean)
e|-----------------------------------|
B|-----------------------------------|
G|-3---------------------------7-----|
D|-3---------------------------7-----|
A|-1---------------------------5-----|
E|-----------------------------------|

   Hat man Euch nicht vor uns gewarnt ?
   Habt Ihr Euch nie gefragt...
e|----------------------------------------------------------------------|
B|----------------------------------------------------------------------|
G|-3---------------------------7----------------8--------------------10-|
D|-3---------------------------7----------------8--------------------10-|
A|-1---------------------------5----------------6--------------------8--|
E|----------------------------------------------------------------------|

...wer wir sind und was wir tun........alles ist wahr, wir sind wieder da
Добавлено: 13.03.2012
Другие материалы по этой песне:
  • Аккорды и текст

Страница создана 13.03.2012
http://primanota.ru/bohse-onkelz/viva-los-tioz-chords.htm
Привет, Гость.
Предлагаем пройти революционный курс по гитаре.
Подарок от PrimaNota.Ru, забирай!