PrimaNota.ru - самый крупный в мире бесплатный архив песенных текстов, аккордов, табулатур и нот


Bohse Onkelz - Auf Gute Freunde Live - таба, видео

Регистрация Запомнить меня
Войти через:  Facebook Google Twitter Vk Yandex Mail.ru

Bohse Onkelz - Auf Gute Freunde Live - таба, видео

Печатать
Просмотров: 171
Band:		Böhse Onkelz
Song:		Auf gute Freunde
Album:		E.I.N.S.
Jahr:		1996
Mix:		Live Version

by:		ph@Z



Intro:								   4x
e|---------------------------------|---------------------------------|
h|---------------------------------|---------------------------------|
g|---------------------------------|---------------------------------|
D|---------------------------------|---------------------------------|
A|-------5-5---------5-5-----------|-------5-5-----------5-5---------|
E|-5-6-7-----7-5-6-7-----7-5-6-7-7-|-5-6-7-----7-5-6-7-7-----7-7-7-7-|
   . . . . . . . . . . . . . . . .   . . . . . . . . . . . . . . . .  pm


Melody:						      2x
e|------------------------------------------------------|
h|------------------------------------------------------|
g|------------------------------------------------------|
D|------------------------------------------------------|
A|-------5b^--------5b^----------------5b^--------5b^---|
E|-5-6-7----7-5-6-7----7-5-6-7~--5-6-7----7-5-6-7----7~-|



Verse I:							       3x
e|-----------------|-----------------|-----------------|-----------------|
h|-----------------|-----------------|-----------------|-----------------|
g|-----------------|-----------------|-7---------------|-----------------|
D|-9---------------|-----------------|-7-7-7-7-7-7-7-7-|---------7-6-7-8-|
A|-9-9-9-9-9-9-9-9-|-5-5-5-5-5-5-5-5-|-5-5-5-5-5-5-5-5-|-7-7-7-7-7-6-7-8-|
E|-7-7-7-7-7-7-7-7-|-3-3-3-3-3-3-3-3-|-----------------|-5-5-5-5-5-4-5-6-|
     . . . . . . .   . . . . . . . .     . . . . . . .   . . . .          pm

e|----------------|-----------------|----------------|----------------|
h|----------------|-----------------|----------------|----------------|
g|----------------|-----------------|-7~---------7-7-|-2~-----------2-|
D|-9~-------------|-----------------|-7~-7-7-7-7-7-7-|-2~-2-2-2-2-2-2-|
A|-9~-9-9-9-9-9-9-|-5-5-5-5-5-5-5-5-|-5~-5-5-5-5-5-5-|-0~-0-0-0-0-0-0-|
E|-7~-7-7-7-7-7-7-|-3-3-3-3-3-3-3-3-|----------------|----------------|
      . . . . . . . . . . . . . . .      . . . .          . . . .      pm


Chorus:							           4x
e|----------------|----------------|----------------|----------------|
h|----------------|----------------|----------------|----------------|
g|-4~---------4-4-|----------------|-7~---------7-7-|-2~---------2-2-|
D|-4~-4-4-4-4-4-4-|-5~---------5-5-|-7~-7-7-7-7-7-7-|-2~-2-2-2-2-2-2-|
A|-2~-2-2-2-2-2-2-|-5~-5-5-5-5-5-5-|-5~-5-5-5-5-5-5-|-0~-0-0-0-0-0-0-|
E|----------------|-3~-3-3-3-3-3-3-|----------------|----------------|
      . . . .          . . . .          . . . .          . . . .      pm


Melody:						      2x
e|------------------------------------------------------|
h|------------------------------------------------------|
g|------------------------------------------------------|
D|------------------------------------------------------|
A|-------5b^--------5b^----------------5b^--------5b^---|
E|-5-6-7----7-5-6-7----7-5-6-7~--5-6-7----7-5-6-7----7~-|



Verse II:							       3x
e|-----------------|-----------------|-----------------|-----------------|
h|-----------------|-----------------|-----------------|-----------------|
g|-----------------|-----------------|-7---------------|-----------------|
D|-9---------------|-----------------|-7-7-7-7-7-7-7-7-|---------7-6-7-8-|
A|-9-9-9-9-9-9-9-9-|-5-5-5-5-5-5-5-5-|-5-5-5-5-5-5-5-5-|-7-7-7-7-7-6-7-8-|
E|-7-7-7-7-7-7-7-7-|-3-3-3-3-3-3-3-3-|-----------------|-5-5-5-5-5-4-5-6-|
     . . . . . . .   . . . . . . . .     . . . . . . .   . . . .          pm

e|----------------|-----------------|----------------|----------------|
h|----------------|-----------------|----------------|----------------|
g|----------------|-----------------|-7~---------7-7-|-2~-----------2-|
D|-9~-------------|-----------------|-7~-7-7-7-7-7-7-|-2~-2-2-2-2-2-2-|
A|-9~-9-9-9-9-9-9-|-5-5-5-5-5-5-5-5-|-5~-5-5-5-5-5-5-|-0~-0-0-0-0-0-0-|
E|-7~-7-7-7-7-7-7-|-3-3-3-3-3-3-3-3-|----------------|----------------|
      . . . . . . . . . . . . . . .      . . . .          . . . .      pm


Chorus:							           4x
e|----------------|----------------|----------------|----------------|
h|----------------|----------------|----------------|----------------|
g|-4~---------4-4-|----------------|-7~---------7-7-|-2~---------2-2-|
D|-4~-4-4-4-4-4-4-|-5~---------5-5-|-7~-7-7-7-7-7-7-|-2~-2-2-2-2-2-2-|
A|-2~-2-2-2-2-2-2-|-5~-5-5-5-5-5-5-|-5~-5-5-5-5-5-5-|-0~-0-0-0-0-0-0-|
E|----------------|-3~-3-3-3-3-3-3-|----------------|----------------|
      . . . .          . . . .          . . . .          . . . .      pm


Bridge:								   3x
e|----------------|----------------|----------------|----------------|
h|----------------|----------------|----------------|----------------|
g|----------------|----------------|-7~-------------|----------------|
D|-5~-------------|-7~-------------|-7~-7-7-7-7-7-7-|-9~-----9-----9-|
A|-5~-5-5-5-5-5-5-|-7~-7-7-7-7-7-7-|-5~-5-5-5-5-5-5-|-9~-9-9-9-9-9-9-|
E|-3~-3-3-3-3-3-3-|-5~-5-5-5-5-5-5-|----------------|-7~-7-7-7-7-7-7-|
      . . . . . .      . . . . . .      . . . . . .      . .   . .    pm

e|----------------|----------------|----------------|-------------|
h|----------------|----------------|----------------|-------------|
g|----------------|----------------|----------------|-------------|
D|-5~-------------|-7~-------------|-9~-----9-----9-|-9~-9~-9~-9~-|
A|-5~-5-5-5-5-5-5-|-7~-7-7-7-7-7-7-|-9~-9-9-9-9-9-9-|-9~-9~-9~-9~-|
E|-3~-3-3-3-3-3-3-|-5~-5-5-5-5-5-5-|-7~-7-7-7-7-7-7-|-7~-7~-7~-7~-|
      . . . . . .      . . . . . .      . .   . .                  pm


Solo:
e|--------------------------------------------------|
h|--------------------------------------------------|
g|--------------------------------------------------|
D|--------------------------------------------------|
A|----------------------------9-7----7-------7------|
E|-7-10-9--7-9-7--7-10-9--7-9-----10---9-10----10-9-|

e|--------------------------------------------------|
h|--------------------------------------------------|
g|--------------------------------------------7-----|
D|-------------------------------------7--7-9---9-7-|
A|----------------------------9-7-9-10--------------|
E|-7-10-9--7-9-7--7-10-9--7-9-----------------------|

e|-----------------------------------------7------------|
h|-10b^-10b^---10b^--7-------------------7---7-7--------|
g|---------------------9-7-9~--7-9b-7-9b---------9-7-9~-|
D|------------------------------------------------------|
A|------------------------------------------------------|
E|------------------------------------------------------|

e|----------------------------------------------|
h|-12-10----10-12-10----10-12-10----10-12-10----|
g|-------11----------11----------11----------11-|
D|----------------------------------------------|
A|----------------------------------------------|
E|----------------------------------------------|

e|----------------------------------------------|
h|-17-15----15-17-15----15-17-15----15-17-15----|
g|-------16----------16----------16----------16-|
D|----------------------------------------------|
A|----------------------------------------------|
E|----------------------------------------------|

e|----------------------------------------------|
h|-19-19-19-17-17-17-15-15-15-14-14-14-15-17~~--|
g|----------------------------------------------|
D|----------------------------------------------|
A|----------------------------------------------|
E|----------------------------------------------|



Verse III:							       3x
e|-----------------|-----------------|-----------------|-----------------|
h|-----------------|-----------------|-----------------|-----------------|
g|-----------------|-----------------|-7---------------|-----------------|
D|-9---------------|-----------------|-7-7-7-7-7-7-7-7-|---------7-6-7-8-|
A|-9-9-9-9-9-9-9-9-|-5-5-5-5-5-5-5-5-|-5-5-5-5-5-5-5-5-|-7-7-7-7-7-6-7-8-|
E|-7-7-7-7-7-7-7-7-|-3-3-3-3-3-3-3-3-|-----------------|-5-5-5-5-5-4-5-6-|
     . . . . . . .   . . . . . . . .     . . . . . . .   . . . .          pm

e|----------------|-----------------|----------------|----------------|
h|----------------|-----------------|----------------|----------------|
g|----------------|-----------------|-7~---------7-7-|-2~-----------2-|
D|-9~-------------|-----------------|-7~-7-7-7-7-7-7-|-2~-2-2-2-2-2-2-|
A|-9~-9-9-9-9-9-9-|-5-5-5-5-5-5-5-5-|-5~-5-5-5-5-5-5-|-0~-0-0-0-0-0-0-|
E|-7~-7-7-7-7-7-7-|-3-3-3-3-3-3-3-3-|----------------|----------------|
      . . . . . . . . . . . . . . .      . . . .          . . . .      pm


Chorus:							           4x
e|----------------|----------------|----------------|----------------|
h|----------------|----------------|----------------|----------------|
g|-4~---------4-4-|----------------|-7~---------7-7-|-2~---------2-2-|
D|-4~-4-4-4-4-4-4-|-5~---------5-5-|-7~-7-7-7-7-7-7-|-2~-2-2-2-2-2-2-|
A|-2~-2-2-2-2-2-2-|-5~-5-5-5-5-5-5-|-5~-5-5-5-5-5-5-|-0~-0-0-0-0-0-0-|
E|----------------|-3~-3-3-3-3-3-3-|----------------|----------------|
      . . . .          . . . .          . . . .          . . . .      pm


Melody:						      2x
e|------------------------------------------------------|
h|------------------------------------------------------|
g|------------------------------------------------------|
D|------------------------------------------------------|
A|-------5b^--------5b^----------------5b^--------5b^---|
E|-5-6-7----7-5-6-7----7-5-6-7~--5-6-7----7-5-6-7----7~-|

Добавлено: 22.04.2012
Другие материалы по этой песне:

Страница создана 10.04.2012
http://primanota.ru/bohse-onkelz/auf-gute-freunde-live-chords.htm
Привет, Гость.
Предлагаем пройти революционный курс по гитаре.
Подарок от PrimaNota.Ru, забирай!