PrimaNota.ru - самый крупный в мире бесплатный архив песенных текстов, аккордов, табулатур и нот


Bobby Vinton - Mr Lonely - аккорды и текст, таба, видео

Регистрация Запомнить меня
Войти через:  Facebook Google Twitter Vk Yandex Mail.ru

Bobby Vinton - Mr Lonely - аккорды и текст, таба, видео

Печатать
Просмотров: 792
Авторы: Gene Allan, Bobby Vinton

Mr Lonely
Bobby Vinton
----------------------------------------------------------------------------
                             MR. LONELY - Bobby Vinton
----------------------------------------------------------------------------
Tabbed by: M. Payne

Tuning: Normal EADGBE

This song just popped into my head and I just played around until 
I got the chords right.



F               Am
Lonely, I'm Mr. Lonely
         Bb          C
I have nobody for my own
        F               Am
I am so lonely, I'm Mr. Lonely
           Bb                     C
Wish I had someone to call on the phone


          F                 F7
Now I'm a soldier, a lonely soldier
          Bb                         Bbm
Away from home through no wish of my own
               F               Am
That's why I'm lonely, I'm Mr. Lonely
            Bb      C       F
I wish that I could go back home




Letters, never a letter
I get no letters in the mail
I've been forgotten, yes, forgotten
Oh how I wonder, how is it I failed

Now I'm a soldier, a lonely soldier
Away from home through no wish of my own
That's why I'm lonely, I'm Mr. Lonely
I wish that I could go back home

       F     Am    Bb    C  or  C     F7    Bbm
   e---1-----0-----1-----3------0-----1-----1--------
   B---1-----1-----3-----5------1-----1-----2--------
   G---2-----2-----3-----5------0-----2-----3--------
   D---3-----2-----3-----5------2-----1-----3--------
   A---3-----0-----1-----3------3-----3-----1--------
   E---1-----0-----1-----3------0-----1-----1--------
============================================================================
Official Wbesite for Bobby Vinton
www.bobbyvinton.com  
Добавлено: 16.03.2012
Другие материалы по этой песне:
  • Аккорды и текст

Страница создана 21.02.2012
http://primanota.ru/bobby-vinton/mr-lonely-chords.htm
Привет, Гость.
Предлагаем пройти революционный курс по гитаре.
Подарок от PrimaNota.Ru, забирай!