PrimaNota.ru - самый крупный в мире бесплатный архив песенных текстов, аккордов, табулатур и нот


Bob - The Dodos - таба, видео

Регистрация Запомнить меня
Войти через:  Facebook Google Twitter Vk Yandex Mail.ru

Bob - The Dodos - таба, видео

Печатать
Просмотров: 158
CAPO ON THE 3RD FRET

For the most part this is spot on, but there are things that Meric does that i 
couldn't pick up on.
This is basically how it is played.
Thanks,

Jake Miller

e|-----------0-----3-----0------------------------------------------|
B|-1-----1h3-----------------3-----1---------1-----1---------1------|
G|---------------------------------------2---------------2-------0--|
D|-----2-------2-------2-------2-------3-------3-------3-------3----|
A|-3-------3-------3-------3-------3-------3-------3-------3--------|
E|------------------------------------------------------------------|

e|-----------0-----3-----0------------------------------------------|
B|-------1h3-------1---------3-----1---------1-----1---------1------|
G|-----------------0---------------------2---------------2-------0--|
D|-----2-------2---2---2-------2-------3-------3-------3-------3----|
A|-3-------3-------3-------3-------3-------3-------3-------3--------|
E|------------------------------------------------------------------|

e|-----------0-----3---3p0-0----------------------------------------|
B|-------1h3-----1-----------3-----1---------1-----1---------1------|
G|---------------------------------------2---------------2-------0--|
D|-----2-------2-------2-------2-------3-------3-------3-------3----|
A|-3-------3-------3-------3-------3-------3-------3-------3--------|
E|------------------------------------------------------------------|

e|-----------0-----3-----0------------------------------------------|
B|-------1h3-----------------3-----1---------1-----1---------1------|
G|---------------------------------------2---------------2-------0--|
D|-----2-------2-------2-------2-------3-------3-------3-------3----|
A|-3-------3-------3-------3-------3-------3-------3-------3--------|
E|------------------------------------------------------------------|

I've got a lot to prove...
e|-0-----0---------0-----0------------------------------------------|
B|---1-------1-------1-------1-----1-----1---------1---------1------|
G|-----------------------------------2-------------------2-------0--|
D|-----2-------2-------2-------2-------3-------3-------3-------3----|
A|-3-------3-------3-------3-------3-------3-------3-------3--------|
E|------------------------------------------------------------------|

e|-----------0-----3-----0------------------------------------------|
B|-------1h3-----------------3-----1---------1-----1---------1------|
G|---------------------------------------2---------------2-------0--|
D|-----2-------2-------2-------2-------3-------3-------3-------3----|
A|-3-------3-------3-------3-------3-------3-------3-------3--------|
E|------------------------------------------------------------------|

I've played the part of cool...
e|-0-----0---------0-----0------------------------------------------|
B|---1-------1-------1-------1-----1-----1---------1---------1------|
G|-----------------------------------2-------------------2-------0--|
D|-----2-------2-------2-------2-------3-------3-------3-------3----|
A|-3-------3-------3-------3-------3-------3-------3-------3--------|
E|------------------------------------------------------------------|

e|-----------0-----3-----0------------------------------------------|
B|-------1h3-----------------3-----1---------1-----1---------1------|
G|---------------------------------------2---------------2-------0--|
D|-----2-------2-------2-------2-------3-------3-------3-------3----|
A|-3-------3-------3-------3-------3-------3-------3-------3--------|
E|------------------------------------------------------------------|

I listen good I listen well...
e|-1-----1---------1-----1---------0-----0---------0-----0----------|
B|---0-------0-------0-------0-------1-------1-------1-------1------|
G|------------------------------------------------------------------|
D|-----3-------3-------3-------3-------2-------2-------2-------2----|
A|---------------------------------3-------3-------3-------3--------|
E|-3-------3-------3-------3----------------------------------------|

e|-------------------------------------------0-----3---3p0-0--------|
B|-1-----1---------1---------1-----------1h3-----0-----------3------|
G|---2-------------------2-------0----------------------------------|
D|-----3-------3-------3-------3-------2-------2-------2-------2----|
A|-3-------3-------3-------3-------3-------3-------3-------3--------|
E|------------------------------------------------------------------|

I've heard her scream I know she yells...
e|-1-----1---------1-----1---------0-----0---------0-----0----------|
B|---0-------0-------0-------0-------1-------1-------1-------1------|
G|------------------------------------------------------------------|
D|-----3-------3-------3-------3-------2-------2-------2-------2----|
A|---------------------------------3-------3-------3-------3--------|
E|-3-------3-------3-------3----------------------------------------|

e|-------------------------------------------0-----3-----0----------|
B|-1-----1---------1---------1-----------1h3-------1--------3-------|
G|---2-------------------2-------0-----------------0----------------|
D|-----3-------3-------3-------3-------2-------2---2---2-------2----|
A|-3-------3-------3-------3-------3-------3-------3-------3--------|
E|------------------------------------------------------------------|

e|-------------------------------------------0-----3---3p0-0--------|
B|-1-----1---------1---------1-----------1h3-----0-----------3------|
G|---2-------------------2-------0----------------------------------|
D|-----3-------3-------3-------3-------2-------2-------2-------2----|
A|-3-------3-------3-------3-------3-------3-------3-------3--------|
E|------------------------------------------------------------------|

There's not a lot that I could write...
e|-0-----0---------0-----0------------------------------------------|
B|---1-------1-------1-------1-----1-----1---------1---------1------|
G|-----------------------------------2-------------------2-------0--|
D|-----2-------2-------2-------2-------3-------3-------3-------3----|
A|-3-------3-------3-------3-------3-------3-------3-------3--------|
E|------------------------------------------------------------------|

e|-----------0-----3-----0------------------------------------------|
B|-------1h3-----------------3-----1---------1-----1---------1------|
G|---------------------------------------2---------------2-------0--|
D|-----2-------2-------2-------2-------3-------3-------3-------3----|
A|-3-------3-------3-------3-------3-------3-------3-------3--------|
E|------------------------------------------------------------------|

Your name is Bob you smoke a pipe...
e|-0-----0---------0-----0------------------------------------------|
B|---1-------1-------1-------1-----1-----1---------1---------1------|
G|-----------------------------------2-------------------2-------0--|
D|-----2-------2-------2-------2-------3-------3-------3-------3----|
A|-3-------3-------3-------3-------3-------3-------3-------3--------|
E|------------------------------------------------------------------|

e|-----------0-----3-----0------------------------------------------|
B|-------1h3-----------------3-----1---------1-----1---------1------|
G|---------------------------------------2---------------2-------0--|
D|-----2-------2-------2-------2-------3-------3-------3-------3----|
A|-3-------3-------3-------3-------3-------3-------3-------3--------|
E|------------------------------------------------------------------|

But we're the same, we are one piece...
e|-1-----1---------1-----1---------0-----0---------0-----0----------|
B|---0-------0-------0-------0-------1-------1-------1-------1------|
G|------------------------------------------------------------------|
D|-----3-------3-------3-------3-------2-------2-------2-------2----|
A|---------------------------------3-------3-------3-------3--------|
E|-3-------3-------3-------3----------------------------------------|

e|-------------------------------------------0-----3---3p0-0--------|
B|-1-----1---------1---------1-----------1h3-----0-----------3------|
G|---2-------------------2-------0----------------------------------|
D|-----3-------3-------3-------3-------2-------2-------2-------2----|
A|-3-------3-------3-------3-------3-------3-------3-------3--------|
E|------------------------------------------------------------------|

You sit and stare of into space...
e|-1-----1---------1-----1---------0-----0---------0-----0----------|
B|---0-------0-------0-------0-------1-------1-------1-------1------|
G|------------------------------------------------------------------|
D|-----3-------3-------3-------3-------2-------2-------2-------2----|
A|---------------------------------3-------3-------3-------3--------|
E|-3-------3-------3-------3----------------------------------------|

e|-------------------------------------------0-----3-----0----------|
B|-1-----1---------1---------1-----------1h3-------1---------3------|
G|---2-------------------2-------0-----------------0----------------|
D|-----3-------3-------3-------3-------2-------2---2---2-------2----|
A|-3-------3-------3-------3-------3-------3-------3-------3--------|
E|------------------------------------------------------------------|

e|---------------------------0---------3-----3-----3---3p0-0--------|
B|-1-----1-----1---------0h1-------------1-------1-----------1------|
G|---2-------2------------------------------------------------------|
D|-----3-------3-------3-------3-------2-------2-------2-------2----|
A|-3-------3-------3-------3-------3-------3-------3-------3--------|
E|------------------------------------------------------------------|

e|---------------------------0---------------0-----3-----0----------|
B|-1-----1---------------0h1-------------1h3-----------------3------|
G|---2-------2------------------------------------------------------|
D|-----3-------3-------3-------3-------2-------2-------2-------2----|
A|-3-------3-------3-------3-------3-------3-------3-------3--------|
E|------------------------------------------------------------------|

e|-------------------------------------------0-----3---3p0-0--------|
B|-1-----1---------1---------1-----------1h3-----0-----------3------|
G|---2-------------------2-------0----------------------------------|
D|-----3-------3-------3-------3-------2-------2-------2-------2----|
A|-3-------3-------3-------3-------3-------3-------3-------3--------|
E|------------------------------------------------------------------|

e|----------------------------------|
B|-1-----1---------1---------1------|
G|---2-------------------2-------0--|
D|-----3-------3-------3-------3----|
A|-3-------3-------3-------3--------|
E|----------------------------------|

e|-1-----1-----1-----0-------------3-----3-----3---3p0-0------------|
B|---0-------0-----------0-----------1-------1-----------3---1------|
G|------------------------------------------------------------------|
D|-----3-------3-------3-------3-------2-------2-------2-------2----|
A|---------------------------------3-------3-------3-------3--------|
E|-3-------3-------3-------3----------------------------------------|

e|---------------------------0-----0-----0-----0--------------------|
B|-1-----1---------------0h3---------1-------1----------------------|
G|---2-------2-------------------0----------------------------------|
D|-----3-------3-------3-------3-------2-------2-------2-------2----|
A|-3-------3-------3-------3-------3-------3-------3-------3--------|
E|------------------------------------------------------------------|

You spend your time you spend my life...
e|-0-----0---------0-----0------------------------------------------|
B|---1-------1-------1-------1-----1-----1---------1---------1------|
G|-----------------------------------2-------------------2-------0--|
D|-----2-------2-------2-------2-------3-------3-------3-------3----|
A|-3-------3-------3-------3-------3-------3-------3-------3--------|
E|------------------------------------------------------------------|

e|-----------0-----3-----0------------------------------------------|
B|-------1h3-----------------3-----1---------1-----1---------1------|
G|---------------------------------------2---------------2-------0--|
D|-----2-------2-------2-------2-------3-------3-------3-------3----|
A|-3-------3-------3-------3-------3-------3-------3-------3--------|
E|------------------------------------------------------------------|

I take it hard because I try...
e|-0-----0---------0-----0------------------------------------------|
B|---1-------1-------1-------1-----1-----1---------1---------1------|
G|-----------------------------------2-------------------2-------0--|
D|-----2-------2-------2-------2-------3-------3-------3-------3----|
A|-3-------3-------3-------3-------3-------3-------3-------3--------|
E|------------------------------------------------------------------|

e|-----------0-----3-----0------------------------------------------|
B|-------1h3-----------------3-----1---------1-----1---------1------|
G|---------------------------------------2---------------2-------0--|
D|-----2-------2-------2-------2-------3-------3-------3-------3----|
A|-3-------3-------3-------3-------3-------3-------3-------3--------|
E|------------------------------------------------------------------|

To have a stroll to have a walk...
e|-1-----1---------1-----1---------0-----0---------0-----0----------|
B|---0-------0-------0-------0-------1-------1-------1-------1------|
G|------------------------------------------------------------------|
D|-----3-------3-------3-------3-------2-------2-------2-------2----|
A|---------------------------------3-------3-------3-------3--------|
E|-3-------3-------3-------3----------------------------------------|

e|-------------------------------------------0-----3---3p0-0--------|
B|-1-----1---------1---------1-----------1h3-----0-----------3------|
G|---2-------------------2-------0----------------------------------|
D|-----3-------3-------3-------3-------2-------2-------2-------2----|
A|-3-------3-------3-------3-------3-------3-------3-------3--------|
E|------------------------------------------------------------------|

I know it's hard for you to change...
e|-1-----1---------1-----1---------0-----0---------0-----0----------|
B|---0-------0-------0-------0-------1-------1-------1-------1------|
G|------------------------------------------------------------------|
D|-----3-------3-------3-------3-------2-------2-------2-------2----|
A|---------------------------------3-------3-------3-------3--------|
E|-3-------3-------3-------3----------------------------------------|

e|-------------------------------------------0-----3-----0----------|
B|-1-----1---------1---------1-----------1h3-------1---------3------|
G|---2-------------------2-------0-----------------0----------------|
D|-----3-------3-------3-------3-------2-------2---2---2-------2----|
A|-3-------3-------3-------3-------3-------3-------3-------3--------|
E|------------------------------------------------------------------|

e|---------------------------0---------3-----3-----3---3p0-0--------|
B|-1-----1-----1---------0h1-------------1-------1-----------1------|
G|---2-------2------------------------------------------------------|
D|-----3-------3-------3-------3-------2-------2-------2-------2----|
A|-3-------3-------3-------3-------3-------3-------3-------3--------|
E|------------------------------------------------------------------|

e|-------------------------------------------0-----3-----0----------|
B|-1-----1---------1---------1-----------1h3-------1---------3------|
G|---2-------------------2-------0-----------------0----------------|
D|-----3-------3-------3-------3-------2-------2---2---2-------2----|
A|-3-------3-------3-------3-------3-------3-------3-------3--------|
E|------------------------------------------------------------------|

e|-------------------------------------------0-----3---3p0-0--------|
B|-1-----1---------1---------1-----------1h3-----0-----------3------|
G|---2-------------------2-------0----------------------------------|
D|-----3-------3-------3-------3-------2-------2-------2-------2----|
A|-3-------3-------3-------3-------3-------3-------3-------3--------|
E|------------------------------------------------------------------|

e|---------------------------------------0---------0-|
B|-1-----1---------1---------1-----1---------------1-|
G|---2-------------------2-------0---0-------0-----0-|
D|-----3-------3-------3-------3-------2-------2---2-|
A|-3-------3-------3---------------3-------3-------3-|
E|-------------------------3-------------------------|

Добавлено: 02.11.2013
Другие материалы по этой песне:
  • Аккорды и текст

Страница создана 02.11.2013
http://primanota.ru/bob/the-dodos-chords.htm
Привет, Гость.
Предлагаем пройти революционный курс по гитаре.
Подарок от PrimaNota.Ru, забирай!