PrimaNota.ru - самый крупный в мире бесплатный архив песенных текстов, аккордов, табулатур и нот


Bob - Letters From Vietnam - текст песни, таба, бас-таба, видео

Регистрация Запомнить меня
Войти через:  Facebook Google Twitter Vk Yandex Mail.ru

Bob - Letters From Vietnam - текст песни, таба, бас-таба, видео

Печатать
Просмотров: 299
I from Kazakhstan, play a guitar not so that much, but have tried to study this 
song and here that has turned out: 
Intro : 
     C
-----0--------3------                              |
-------1---1----1---1                              |
---------0--------0--                              |
---------------------                              | 
-----3--------3------                              |
---------------------                              |
     C                                             |
-----0--------0---3---0---3----                    |
-------1---1----1---1---1---1--                    |          
---------0---------------------                    |           
-------------------------------                    |           
-----3-------------------------                    |              
-------------------------------                    |              
    Am                                             |               
----0--------3--------0-------3---0---3---0---      \              
------1---1----1---1----1---1---1---1---1---1-       \            
--------2--------2--------2-------------------        \             
----2--------2--------2-----------------------        / 2x            
----------------------------------------------       /               
----------------------------------------------      /            
                                                   |                
   Fmaj7                                           |
---1------------1-----------1----------1--------   |
-----1----1-------1----1------1---1------1---1--   |
-------2------------2-----------1----------1----   |
------------------------------------------------   |
---3------------3-----------3----------3--------   |
------------------------------------------------   |
                                                   |
   C                                               |
---0----------0---------0-------                   |
-----1----1-----1---3-----3---1-                   |
-------0----------0---------0---                   |
--------------------------------                   |
---3----------3---------3-------                   |
--------------------------------                   |

in chorus : C  Am Fmaj7  C
in verse  : Dm G  Am     Em
Добавлено: 05.04.2012
Другие материалы по этой песне:
  • Аккорды и текст

Страница создана 06.03.2012
http://primanota.ru/bob/letters-from-vietnam-chords.htm
Привет, Гость.
Предлагаем пройти революционный курс по гитаре.
Подарок от PrimaNota.Ru, забирай!