PrimaNota.ru - самый крупный в мире бесплатный архив песенных текстов, аккордов, табулатур и нот


Bob Marley - Buffalo Soildier - аккорды и текст, видео

Регистрация Запомнить меня
Войти через:  Facebook Google Twitter Vk Yandex Mail.ru

Bob Marley - Buffalo Soildier - аккорды и текст, видео

Печатать
Просмотров: 184
Buffalo Soildier
Bob Marley
Intro
 
e|-----------------|--------5-5-5-5-|--------------|-----------------|
B|-----------------|--------5-5-5-5-|--------------|-----------------|
G|-----------------|-6-6-6--6-6-6-6-|---6-6-6-6-6--|-6-6-x-x-6--6-6--|
D|-7-7-7-7-7-7-7-7-|-7-7-7----------|---7-7-7-7-7--|-7-7 x-x-7--7-7--|
A|-7-7-7-7-7-7-7-7-|-7-7-7----------|---7-7-7-7-7--|-7-7-x-x-7--7-7--|
E|-5-5-5-5-5-5-5-5-|----------------|--------------|-----------------|

Verse

e|---------------|---------------|---------------|-------------|
B|---------------|---------------|---------------|-------------|
G|---------------|---------------|---------------|-----2-------|
D|---------------|---------------|--4-4-2--0-----|---4---------| x4
A|--4-4-4--4-4---|--4-4-4--4-4---|------------4--|-------0-0---|
E|--5-5-5--5-5---|--5-5-5--5-5---|---------------|-------------|

PM-------------------------------|


e|-----------------|----------------|---------------|-----------|
B|--------------2--|-------------2--|---------------|-----------|
G|--------------2--|-------------2--|---------------|-----------| x3
D|--------------2--|-----4-x-----2--|---------------|-----------|
A|--5-5-5-0-4-4----|-5-5-----4-4----|-4-4-4--2-2-2--|-----------|
E|-----------------|----------------|---------------|--2---2----|

Bridge

e|---------------|---------------|----------------|----------|
B|---------------|---------------|----------------|----------|
G|---------------|---------------|----------------|----------|
D|---------------|---------------|--------------2-|----------|
A|---------------|---------------|-5-5-5--5-2-5---|--4---4---|
E|--2-2-2-0-2-2--|--2-2-2-0-2-2--|----------------|----------|

PM------------------------------------------------|

e|-------------|-------------|-----------------|----------|
B|-------------|-------------|-----------------|----------|
G|-------------|-------------|-----------------|-----2----|
D|-------------|-------------|---------------2-|-4--------|
A|-------------|-------------|-5-5-5--5--2-5---|----------|
E|-2-2-2--2-2--|-2-2-2--2-2--|-----------------|----------|

PM---------------------------------------------|
Добавлено: 30.01.2014
Другие материалы по этой песне:
  • Аккорды и текст

Страница создана 30.01.2014
http://primanota.ru/bob-marley/buffalo-soildier-chords.htm
Привет, Гость.
Предлагаем пройти революционный курс по гитаре.
Подарок от PrimaNota.Ru, забирай!