PrimaNota.ru - самый крупный в мире бесплатный архив песенных текстов, аккордов, табулатур и нот


Bob Marley - Comin In From The Cold - аккорды и текст, бас-таба, видео

Регистрация Запомнить меня
Войти через:  Facebook Google Twitter Vk Yandex Mail.ru

Bob Marley - Comin In From The Cold - аккорды и текст, бас-таба, видео

Печатать
Просмотров: 107
Comin In From The Cold
Bob Marley
INTRO
G ||-------------------2-O-----|--------------------2-O--------||
D ||---------------------------|-------------------------------||
A ||-3-3--3-3--3-3---------3---|--3-3--3-3--3-3---------3------||
E ||---------------------------|-------------------------------||

G ||-------------------7-5-----|-------------------------------||
D ||-3-3--3-3--3-3---------3---|-3-3--3-3--3-3-------O-7-O-----||
A ||---------------------------|-------------------------------||
E ||---------------------------|-------------------------------||


RIFF 1 "In this life..."
G ||-------------------2-O-----|--------------------2-O--------||
D ||---------------------------|-------------------------------||
A ||-3-3--3-3--3-3---------3---|--3-3--3-3--3-3---------3------||
E ||---------------------------|-------------------------------||
REPEAT ONCE
G ||---------------------------|-------------------------------||
D ||---------------------------|-------------------O-7-O-------||
A ||-------------------5-3-----|-------------------------------||
E ||-1-1--1-1--1-1---------1---|--1-1--1-1--1-1----------------||



G ||-------------------2-O-----|-------------------------------||
D ||---------------------------|----------7-5-O----------------||
A ||-3-3--3-3--3-3---------3---|---7-5-O--------------3-3---3--||
E ||---------------------------|-------------------------------||


RIFF2
G ||---------------------------|-------------------------------||
D ||-------O-7--------O-7------|--------7-5-O------------------||
A ||--O-3--------O-3-----------|--7-5-O---------------3-3---3--||
E ||---------------------------|-------------------------------|| REPEAT 3 TIMES


BRIDGE "DON'T YOU LET THE SYSTEM...."
G ||-----------------------------------------------------------||
D ||-----------------------------------------------------------||
A ||----------------------------5-3----------------------------||
E ||---3-3-3-3----3-3-3-3-----------5--------------------------|| REPEAT TWICE


G ||---------------------------|-------------------------------||
D ||---------------------------|-------------------O-7-O-------||
A ||-------------------5-3-----|-------------------------------||
E ||-1-1--1-1--1-1---------1---|--1-1--1-1--1-1----------------||

PLAY RIFF1
Добавлено: 06.01.2014
Другие материалы по этой песне:
  • Аккорды и текст

Страница создана 10.08.2013
http://primanota.ru/bob-marley/comin-in-from-the-cold-chords.htm
Привет, Гость.
Предлагаем пройти революционный курс по гитаре.
Подарок от PrimaNota.Ru, забирай!