PrimaNota.ru - самый крупный в мире бесплатный архив песенных текстов, аккордов, табулатур и нот


Bob Dylan - It Takes A Lot To Laugh, It Takes A Train To Cry - аккорды и текст, видео

Регистрация Запомнить меня
Войти через:  Facebook Google Twitter Vk Yandex Mail.ru

Bob Dylan - It Takes A Lot To Laugh, It Takes A Train To Cry - аккорды и текст, видео

Печатать
Просмотров: 218
It Takes A Lot To Laugh, It Takes A Train To Cry
Bob Dylan
---------------------------------------------------------------------------
     It Takes a Lot to Laugh, It Takes a Train to Cry - Bob Dylan
---------------------------------------------------------------------------
Tabbed by: maguri
Tuning: Standard

Bob Dylan 
It Takes a Lot to Laugh, It Takes a Train to Cry (1965)
(Dylan)

From: "Highway 61 Revisited"

Listen to this tab:
https://db.tt/KLwYu2yJ

---------------------------------------------------------------------------

capo: 1st fret
play: G
key: G#

---------------------------------------------------------------------------

The feel is bluesy/shuffled.

MAIN RIFF 
intro
  G  C/G G        
  1 + 2 + 3 + 4 + e
e|-(3-3-------3)--|
B|--0-1-0-----0---|
G|--0-0-0-----0---|
D|0-0-2-0--0--0---|
A|----------------| 
E|3--------3-3--3-|


VERSE
(first verse,first four lines)
                  [blues turnaround]
  G  C/G G            G5 G(b5) C5/G G  C/G G        G  C/G G G(b5) C/G
  1 + 2 + 3 + 4 +  1 + 2 + 3 + 4 +  1 + 2 + 3 + 4 +  1 + 2 + 3 + 4 +
e|---(3-3-----3)--|----------------|---(3-3-----3)--|---(3-3-----3)--|
B|--0-1-0-----0---|----3---2---1-0-|--0-1-0-----0---|--0-1-0-2-2-1-0-|
G|--0-0-0-----0---|----0---0---0-0-|--0-0-0-----0---|--0-0-0-0-0-0-0-|
D|0-0-2-0--0--0---|--0-------------|0-0-2-0--0--0---|0-0-2-0--0------|
A|----------------|----------------|----------------|----------------|
E|3--------3-3--3-|3-----3---3-----|3--------3-3--3-|3---------------|

(second and third verse)
  G  C/G G   C/G G
  1 + 2 + 3 + 4 + e
e|-(3-3-------3)--|
B|--0-1-0---0-1-0-|
G|--0-0-0---0-0-0-|
D|0-0-2-0---0-2-0-|
A|----------------| 
E|3--------3-3--3-|

---------------------------------------------------------------------------
CHORDS

          E-A-D-G-B-e
C/G       3-x-2-0-1-3
G5        x-x-x-0-3-x
G(b5)     x-x-x-0-2-x
C5/G      x-x-x-0-1-x

G/F       3-x-0-0-0(3)
C/E       0(3)2-0-1-0

---------------------------------------------------------------------------

INTRO
| G C/G G    | 
(acoustic guitar only)

| G C/G G    | G C/G G    |
(full band)


VERSE
      G           C/G G
Well, I ride on a mailtrain, baby
G G5    G(b5) C5/G | G C/G G    | G C/G G G(b5) C5/G |
  Can't buy   a    thrill
                G  C/G G
Well, I've been up all night, baby
G       G5     G(b5) C5/G | G C/G G    | G C/G G G(b5) C5/G |
Leanin' on the win - dow - sill
      G    G/F
Well, if I die
   C/E       | D | % |
On top of the hill
    G    C/G  G
And if I don't make it
G                 | G C/G G    | G C/G G G(b5) C5/G |
 You know my baby will


VERSE
          G    C/G  G           C/G  G
Don't the moon look good, mama
G   C/G G        C/G G     | G C/G G    | G C/G G G(b5) C5/G |
 Shinin' through the trees?
          G        C/G  G           C/G  G
Don't the brakeman look good, mama
G        C/G  G       C/G G     | G C/G G    | G C/G G G(b5) C5/G |
Flagging down the "Double E?"
          G        G/F
Don't the sun look good
      C/E          | D | % |
Goin' down over the sea?
         G   C/G  G
Don't my gal look fine
          G  C/G  G       | G C/G G    | G C/G G    |
When she's comin' after me?


SOLO
| G C/G G    | G C/G G    | G C/G G    | G C/G G    |
| G C/G G    | G C/G G    | G C/G G    | G C/G G    |
| G G/F | C/E | D | % |
          2/4  
| G C/G G    | G C/G G    | G C/G G    | G C/G G G(b5) C5/G |


VERSE
        G     C/G  G           C/G  G
Now the wintertime is coming
G    C/G G                    | G C/G G    | G C/G G    |
 The win-dows are filled with frost
          G    C/G G           C/G  G
I went to tell e - verybody
     G5        C/G   | G C/G G    | G C/G G G(b5) C5/G |
But I could not get across
        G             G/F
Well, I wanna be your lover, baby
  C/E                 | D | % |
I don't wanna be your boss
         G   C/G  G
Don't say I never warned you
          G  C/G  G       | G C/G G    | G C/G G G(b5) C5/G |
When your train gets lost


OUTRO
| G C/G G    | G C/G G G(b5) C5/G | G C/G G    | G C/G G G(b5) C5/G |
| G C/G G    | G C/G G    | G C/G G G(b5) C5/G | G C/G G G(b5) C5/G |
| G G/F | C/E | D | % |
          2/4  
| G C/G G    | G C/G G    | G C/G G    | G C/G G G(b5) C5/G |

(fade out)
Добавлено: 09.04.2015
Другие материалы по этой песне:
  • Аккорды и текст

Страница создана 04.06.2012
http://primanota.ru/bob-dylan/it-takes-a-lot-to-laugh-it-takes-a-train-to-cry-chords.htm
Привет, Гость.
Предлагаем пройти революционный курс по гитаре.
Подарок от PrimaNota.Ru, забирай!