PrimaNota.ru - самый крупный в мире бесплатный архив песенных текстов, аккордов, табулатур и нот


Blur - Weve Got A File On You - аккорды и текст, таба, видео

Регистрация Запомнить меня
Войти через:  Facebook Google Twitter Vk Yandex Mail.ru

Blur - Weve Got A File On You - аккорды и текст, таба, видео

Печатать
Просмотров: 189
Уроки эстрадного вокала в Санкт-Петербурге
Weve Got A File On You
Blur
e/-------------------------------
B/-------------------------------
G/-------------------------------
D/------------------------------- Intro I
A/-------------------------------
E/--2-2-2--2--2--2--2-2-2--2--2--

e/-------------------------------
B/-------------------------------
G/-------------------------------
D/------------------4-4-4--4--4-- Intro II
A/--4-4-4--4--4--4--4-4-4--4--4--
E/--2-2-2--2--2--2--2-2-2--2--2--

e/-------------------------------------
B/-------------------------------------
G/-------------------------------------
D/------------------------------------- Pre-Chorus (x3)
A/--4-4--4--4-4--4--7-7-7--7-*-4-4-4-*-
E/--2-2--0--2-2--0--5-5-5--0-*-2-2-0-*-

e/--------------------------------
B/--------------------------------
G/--------------------------------
D/-------------------------------- Chorus Chant (x4)
A/--4-4--4-4-4--4-4-4-4-4-*-7-7-*- (We've Got A File On You!)
E/--2-2--0-2-2--0-2-2-2-0-*-5-5-*-

e/--6--
B/--7--
G/--6--Repeat chord a few times
D/--4--
A/-----
E/-----

e/--------------------------------
B/--------------------------------
G/-----2-3-3---------------------- Pre-Chorus II (x3)
D/--4----------(x3)----4----------
A/-----------------------3/4------
E/--------------------------------

Repeat Chorus Chant (x4)
Добавлено: 02.02.2014
Другие материалы по этой песне:

Страница создана 29.03.2012
http://primanota.ru/blur/weve-got-a-file-on-you-chords.htm
Привет, Гость.
Предлагаем пройти революционный курс по гитаре.
Подарок от PrimaNota.Ru, забирай!