PrimaNota.ru - самый крупный в мире бесплатный архив песенных текстов, аккордов, табулатур и нот


Blur - Jets - аккорды и текст, таба, бас-таба, видео

Регистрация Запомнить меня
Войти через:  Facebook Google Twitter Vk Yandex Mail.ru

Blur - Jets - аккорды и текст, таба, бас-таба, видео

Печатать
Просмотров: 634
Авторы: Mike Smith
Авторы музыки: Alex James, Dave Rowntree, Damon Albarn
Авторы текста: Damon Albarn
Jets
Blur
MAIN RIFF (yes, the only guitar part)

E|------------------------------------------------------------------------|
B|-----10^------------10^--------------12-12-12-12-------12-12-12-10------|
G|---------12-9-12-9------12-9-12-9----------------11----------------12-9-|
D|------------------------------------------------------------------------|
A|------------------------------------------------------------------------|
E|------------------------------------------------------------------------|

Not guitar parts, but can be played by a guitar.

E|---------------------------------------------------------------------|
B|----------------------------------11-11-11-10--11-11-----------------|
G|--9-9-9-9--9-9----9-9-9-9--9-9--------------------------9-9-9-9--9-9-| "B"
D|---------------------------------------------------------------------|
A|---------------------------------------------------------------------|
E|---------------------------------------------------------------------|

E|--- -5-7-8-7-----5-7-8-7----5-8-7--5-8-7--5-8-7--8-7------|
B|-*-5---------*----------------------------------------6-5-|
G|----------------------------------------------------------| "C"
D|----------------------------------------------------------|
A|----------------------------------------------------------|
E|----------------------------------------------------------|

Order:
Main Riff (x8)
B (x6)
C (x2)
Main Riff (x4)
(No Guitar) unitl about 4:04
Main Riff (x2)
(Sax Solo)
Добавлено: 04.02.2014
Другие материалы по этой песне:
  • Аккорды и текст

Страница создана 26.02.2012
http://primanota.ru/blur/jets-chords.htm
Привет, Гость.
Предлагаем пройти революционный курс по гитаре.
Подарок от PrimaNota.Ru, забирай!