PrimaNota.ru - самый крупный в мире бесплатный архив песенных текстов, аккордов, табулатур и нот


Blue October - Dirt Room - текст песни, таба, видео

Регистрация Запомнить меня
Войти через:  Facebook Google Twitter Vk Yandex Mail.ru

Blue October - Dirt Room - текст песни, таба, видео

Печатать
Просмотров: 392
Song: Dirt Room
Artist: Blue October
Album: Approaching Normal
Written By: Justin Furstenfeld

Tabbed By: Poncho Ocejo

Tuning: Standard Tuning (E A D G B E)
Symbols:         x = Palm Mute
                 h = Hammer-On
                 p = Pull-Off
                 /  = Slide Up

Intro:

E | ----------------------------------------------------------------------------|
B | ----------------------------------------------------------------------------|
G | -----7----7--7-----7----7--7-----6----6--6-----6----6-----------------------|
D | --9-9--9-9--9---9-9--9-9--9---7-7--7-7--7---7-7--7-7------------------------|
A | ----------------------------------------------------------------------------|
E | ----------------------------------------------------------------------------|


E | ----------------------------------------------------------------------------|
B | ----------------------------------------------------------------------------|
G | -----1----1--1-----1----1--1-----2----2--2-----2----2-----------------------|
D | --2-2--2-2--2---2-2--2-2--2---4-4--4-4--4---4-4--4-4------------------------|
A | ----------------------------------------------------------------------------|
E | ----------------------------------------------------------------------------|


2nd Guitar

E | -----------------------------------------------------------------------------|
B | -----------------------------------------------------------------------------|
G | -----------------------------------------------------------------------------|
D | --9--6---6h7-----------------------------------------------------------------|
A | -----------------------------------------------------------------------------|
E | -----------------------------------------------------------------------------|


Verse 1:

E | ----------------------------------------------------------------------------|
B | ----------------------------------------------------------------------------|
G | -----7----7--7-----7----7--7-----6----6--6-----6----6-----------------------|
D | --9-9--9-9--9---9-9--9-9--9---7-7--7-7--7---7-7--7-7------------------------|
A | ----------------------------------------------------------------------------|
E | ----------------------------------------------------------------------------|

E | ----------------------------------------------------------------------------|
B | ----------------------------------------------------------------------------|
G | -----1----1--1-----1----1--1-----2----2--2-----2----2-----------------------|
D | --2-2--2-2--2---2-2--2-2--2---4-4--4-4--4---4-4--4-4------------------------|   (x2)
A | ----------------------------------------------------------------------------|
E | ----------------------------------------------------------------------------|


2nd Guitar:

E | -----------------------------------------------------------------------------|
B | -----------------------------------------------------------------------------|
G | -----------------------------------------------------------------------------|
D | --9--9-9-9---7--7-7-7---6--6-6-6---6h7---------------------------------------|
A | -----------------------------------------------------------------------------|
E | -----------------------------------------------------------------------------|


E | -----------------------------------------------------------------------------|
B | -----------------------------------------------------------------------------|
G | -----------------------------------------------------------------------------|
D | --9-(x16)--7-(x16)--6-(x16)---6h7---6-(x14)----------------------------------|
A | -----------------------------------------------------------------------------|
E | -----------------------------------------------------------------------------|


Pre-Chorus:

E | ----------------------------------------------------------------------------|
B | ----------------------------------------------------------------------------|
G | --9-(x8)--9-(x8)--13-(x8)--11-(x8)------------------------------------------|
D | --7--------11------14---------12--------------------------------------------|
A | ----------------------------------------------------------------------------|
E | ----------------------------------------------------------------------------|

2nd Guitar:

E | -----------------------------------------------------------------------------|
B | -----------------------------------------------------------------------------|
G | -----------------------------------------------------------------------------|
D | --9-(x8)--7-(x8)--6-(x8)--7-(x8)---------------------------------------------|
A | -----------------------------------------------------------------------------|
E | -----------------------------------------------------------------------------|


Chorus:

E | ----------------------------------------------------------------------------|
B | ----------------------------------------------------------------------------|
G | --9-(x16)--9-(x16)--13-(x16)--11--------------------------------------------|
D | --7----------11--------14----------12---------------------------------------|
A | ----------------------------------------------------------------------------|
E | ----------------------------------------------------------------------------|


2nd Guitar:

E | -----------------------------------------------------------------------------|
B | -----------------------------------------------------------------------------|
G | -----------------------------------------------------------------------------|
D | --9-(x16)--7-(x16)--6-(x16)--7--(x16)----------------------------------------|
A | -----------------------------------------------------------------------------|
E | -----------------------------------------------------------------------------|


Bridge:

E | --x-x---x-x---x---x-x---x-x--------------------------------------------|
B | --x-x---x-x---x---x-x---x-x--------------------------------------------|
G | --x-x---x-x---x---x-x---x-x--------------------------------------------|
D | --x-x---x-x---x---x-x---x-x--------------------------------------------|
A | --x-x---x-x---x---x-x---x-x--------------------------------------------|
E | --x-x---x-x---x---x-x---x-x--------------------------------------------|


Verse 2:

E | ----------------------------------------------------------------------------|
B | ----------------------------------------------------------------------------|
G | -----6----6--6-----6----6--1-----1----1--1-----1----1-----------------------|
D | --7-7--7-7--7---7-7--7-7--7---2-2--2-2--2---2-2--2-2------------------------|
A | ----------------------------------------------------------------------------|
E | ----------------------------------------------------------------------------|


E | ----------------------------------------------------------------------------|
B | ----------------------------------------------------------------------------|
G | -----2----2--2-----2----2---------------------------------------------------|
D | --4-4--4-4--4---4-4--4-4----------------------------------------------------|
A | ----------------------------------------------------------------------------|
E | ----------------------------------------------------------------------------|


2nd Guitar:

E | -----------------------------------------------------------------------------|
B | -----------------------------------------------------------------------------|
G | -----------------------------------------------------------------------------|
D | --7--7-7-7---6--6-6-6---6h7--------------------------------------------------|
A | -----------------------------------------------------------------------------|
E | -----------------------------------------------------------------------------|


E | -----------------------------------------------------------------------------|
B | -----------------------------------------------------------------------------|
G | -----------------------------------------------------------------------------|
D | --9-(x16)--7-(x16)--6-(x16)--7-(x16)-----------------------------------------|
A | -----------------------------------------------------------------------------|
E | -----------------------------------------------------------------------------|


Verse 1 (x2)

Chorus (x 3)

Bridge (x 2)


2nd Guitar:

E | --7--------------------------------------------------------------------------|
B | ----7/8---8h10p8---7/10---12-10-8-7-5/8--------------------------------------|
G | -----------------------------------------------------------------------------|
D | -----------------------------------------------------------------------------|
A | -----------------------------------------------------------------------------|
E | -----------------------------------------------------------------------------|


E | -----------------------------------------------------------------------------|
B | --10-8-7-5/7-(x9)------------------------------------------------------------|
G | -----------------------------------------------------------------------------|
D | -----------------------------------------------------------------------------|
A | -----------------------------------------------------------------------------|
E | -----------------------------------------------------------------------------|


E | --19-(x8)--17-(x8)--19-(x8)------------------------------------------|
B | -------------------------------------19-19-19--19-20-19-20-19-20-19--|
G | ---------------------------------------------------------------------|
D | ---------------------------------------------------------------------|
A | ---------------------------------------------------------------------|
E | ---------------------------------------------------------------------|


Chorus (x 3)
Добавлено: 02.11.2013
Другие материалы по этой песне:
  • Аккорды и текст

Страница создана 06.09.2013
http://primanota.ru/blue-october/dirt-room-chords.htm
Привет, Гость.
Предлагаем пройти революционный курс по гитаре.
Подарок от PrimaNota.Ru, забирай!