PrimaNota.ru - самый крупный в мире бесплатный архив песенных текстов, аккордов, табулатур и нот


Blue October - Gun Metal Blue - таба, видео

Регистрация Запомнить меня
Войти через:  Facebook Google Twitter Vk Yandex Mail.ru

Blue October - Gun Metal Blue - таба, видео

Печатать
Просмотров: 212
-------------------------------------------------------------------------------
			     SONG NAME - Band Name
-------------------------------------------------------------------------------
Tabbed by:ChameleonBoy

Tuning:Standard

Intro:

e|---------------------------------|
B|---------------------------------|
G|-------0-------------------------|
D|----2-----2-------4-----------0--| Twice
A|-3-----------3/5-----5-----2-----|
E|------------------------3--------|


e|------------------------------------3-|
B|-------0-------------------------3----|
G|-------0----------------------0-------|
D|----2-----2-------4--------0----------|
A|-3-----------3/5-----5----------------|
E|------------------------3-------------|


e|-------3-----3/5--------------------3-|
B|----------3--3/5--------3--------3----|
G|------------------------------0-------|
D|----2----------------------0----------|
A|-3-----------3/5----------------------|
E|------------------------3-------------|

Verse:
      "I'm having a nightmare..."
e|---------------------------------|
B|---------------------------------|
G|-------0-------------------------|
D|----2-----2-------4-----------0--|
A|-3-----------3/5-----5-----2-----|
E|------------------------3--------|

until the end
sometimes with the variations from the top

| /  slide up
| \  slide down
| h  hammer-on
| p  pull-off
| ~  vibrato
| +  harmonic
| x  Mute note
===============================================================================
Добавлено: 20.08.2013
Другие материалы по этой песне:
  • Аккорды и текст

Страница создана 20.08.2013
http://primanota.ru/blue-october/gun-metal-blue-chords.htm
Привет, Гость.
Предлагаем пройти революционный курс по гитаре.
Подарок от PrimaNota.Ru, забирай!