PrimaNota.ru - самый крупный в мире бесплатный архив песенных текстов, аккордов, табулатур и нот


Bloc Party - Signs Live - таба, видео

Регистрация Запомнить меня
Войти через:  Facebook Google Twitter Vk Yandex Mail.ru

Bloc Party - Signs Live - таба, видео

Печатать
Просмотров: 137
This is the part that Russell plays live. I havent tabbed the glocks because there is 
really good tab with all the other parts, including Kele's, but it didnt have this.

Verse 1
e|---------------------------------------------------------|
B|-----------12------------12-9------10-9----9------10-9---|
G|--11-9---9------11-9---9------11-9------11---11-9------11|
D|9------9-------9------9----------------------------------|
A|---------------------------------------------------------|
E|---------------------------------------------------------|

Break and Verse 2
e|--------------------------------------------------------------|
B|--------------------------12------------------------------12--|
G|--9---11-9---9---9---11-----------9---11-9---9---9---11-------|
D|9---9------9---9---9----9----9--9---9------9---9---9----9----9|
A|--------------------------------------------------------------|
E|--------------------------------------------------------------|

e|--------------------------------------------------------|
B|--9------------10-9-----------9------------10-9---------|
G|----11-9---9--------11-9-11-----11-9---9--------11-9-11-|
D|9--------9---9--------------9--------9---9--------------|
A|--------------------------------------------------------|
E|--------------------------------------------------------|

Chorus
e|9----------------------9---------------------|
B|--9--12----9-------------9--12-----9---------|
G|--------11---9--11-------------11----9--11---|
D|-------------------11----------------------11|
A|---------------------------------------------|
E|---------------------------------------------|

e|9----------------------------------------|
B|--9--12-----9-----------10-9-------------|
G|--------11----9--11----------11-9--------|
D|--------------------11------------11-9-11|
A|-----------------------------------------|
E|-----------------------------------------|

Solo Bit
e|----------------------------------------------------------------|
B|----------------------------------12--12--12--12--10-9----------|
G|----------------8-8-8-8--9-9-9-9----11--11--11--11-----9-11-9-11|
D|11--11--11--11---8-8-8--8-9-9-9-9-------------------------------|
A|--11--11--11--11------------------------------------------------|
E|----------------------------------------------------------------|

e|---------------|
B|10--9----------|
G|------9-11-9-11|
D|---------------|
A|---------------|
E|---------------|

Outro
e|9-9-11--11--12--12--14--14---17--16--14--12-12-14--17--16--17--16--14--12|
B|-9-9--11--11--12--12--14--14---------------------------------------------|
G|-------------------------------------------------------------------------|
D|-------------------------------------------------------------------------|
A|-------------------------------------------------------------------------|
E|-------------------------------------------------------------------------|

e|12--12--12--14--11--11--11--11--|
B|--12--12--12--12--12--12--12--12|
G|--------------------------------|
D|--------------------------------|
A|--------------------------------|
E|--------------------------------|

Thats all.
Great song, and I love this guitar part, its really really nice.
Добавлено: 29.07.2012
Другие материалы по этой песне:

Страница создана 13.05.2012
http://primanota.ru/bloc-party/signs-live-chords.htm
Привет, Гость.
Предлагаем пройти революционный курс по гитаре.
Подарок от PrimaNota.Ru, забирай!