PrimaNota.ru - самый крупный в мире бесплатный архив песенных текстов, аккордов, табулатур и нот


Bloc Party - Staying Fat - текст песни, таба, видео

Регистрация Запомнить меня
Войти через:  Facebook Google Twitter Vk Yandex Mail.ru

Bloc Party - Staying Fat - текст песни, таба, видео

Печатать
Просмотров: 144
Авторы музыки: Gordon Moakes, Matt Tong, Kele Okereke, Russell Lissack

Band: Bloc Party
Song: Staying Fat
Tabbed by: www.alittleftbehind.tk (Daniel King)

Intro

Guitar 1

e]---------------------------------------------------|
b]---------------------------------------------------|
g]---------------------------------------------------|
d]---------------------------------------------------|
a]---------------------------------------------------|
e]--2-2---5-5---2-0-2---5-5--------------------------|

Guitar 2

e]----------------------------------------------------|
b]-------3----5-------3------5------------------------|
g]-------2----6-------2------6------------------------|
d]----------------------------------------------------|
a]----------------------------------------------------|
e]----------------------------------------------------|

Intro/Verse

Guitar 1

e]------------------------------------|
b]------------------------------------|
g]------------------------------------|
d]------------------------------------|
a]------------------------------------|
e]--2-2-------------5-5---------------|

Guitar 2

e]------------------------------------|
b]--------------3-3-----5-5-----------|
g]----------2-2-------------4-4-6-6---|
d]------4-4---------------------------|
a]------------------------------------|
e]------------------------------------|

Chorus

Guitar 1

e]----------------------------|
b]--------Repeat-Over---------|
g]----------------------------|
d]----------------------------|
a]--9--9--9--9--9--9--9--9----|
e]----------------------------|

Guitar 2

e]--------------5-5------5-5--------------5-5-10-10-9-9-----12-12-9-9------|
b]----------5-5--------------5-5--------------------------------------10/--|
g]------6-6----------------------6-6--4-4---------------6-6----------------|
d]--4-4--------------7-7---------------------------------------------------|
a]-------------------------------------------------------------------------|
e]-------------------------------------------------------------------------|

Verse 2

Guitar 1

e]------------------------------------|
b]------------------------------------|
g]------------------------------------|
d]------------------------------------|
a]------------------------------------|
e]--2-2-------------5-5---------------|

Guitar 2

e]------------------------------------|
b]--------------3-3-----5-5-----------|
g]----------2-2-------------4-4-6-6---|
d]------4-4---------------------------|
a]------------------------------------|
e]------------------------------------|

Chorus

Guitar 1

e]----------------------------|
b]--------Repeat-Over---------|
g]----------------------------|
d]----------------------------|
a]--9--9--9--9--9--9--9--9----|
e]----------------------------|

Guitar 2

e]--------------5-5------5-5--------------5-5-10-10-9-9-----12-12-9-9------|
b]----------5-5--------------5-5--------------------------------------10/--|
g]------6-6----------------------6-6--4-4---------------6-6----------------|
d]--4-4--------------7-7---------------------------------------------------|
a]-------------------------------------------------------------------------|
e]-------------------------------------------------------------------------|

Bridge

Guitar 1

e]----------------|
b]----------------|
g]----------------|
d]----------------|
a]----------------|
e]--0h2---0h2-----|

Guitar 2

e]----------------|
b]------3-----5---|
g]------2-----2---|
d]----------------|
a]----------------|
e]----------------|

Guitar 1

e]--------------------|
b]--19----------------|
g]--------------------|
d]--16----------------|
a]--------------------|
e]--Tremelo-Picking---|

Guitar 2

e]------------------------------------------------------------------------|
b]------5-----5-----------5-----5-----------5-----5-----------------------|
g]--2-2---2-2---2-2-2-2-2---2-2---2-2-2-2-2---2-2---2-2-4b4b4b4b4b4b4b4---|
d]------------------------------------------------------------------------|
a]------------------------------------------------------------------------|
e]------------------------------------------------------------------------|

Outro

e]---------------------------------------------------|
b]---------------------------------------------------|
g]---------------------------------------------------|
d]--2h4-2h4-2h4-2h4-2h4-2h4-2h4----------------------|
a]---------------------------------------------------|
e]---------------------------------------------------|
Добавлено: 10.07.2012
Другие материалы по этой песне:

Страница создана 27.03.2012
http://primanota.ru/bloc-party/staying-fat-chords.htm
Привет, Гость.
Предлагаем пройти революционный курс по гитаре.
Подарок от PrimaNota.Ru, забирай!