PrimaNota.ru - самый крупный в мире бесплатный архив песенных текстов, аккордов, табулатур и нот


Bloc Party - Luno - текст песни, таба, бас-таба, видео

Регистрация Запомнить меня
Войти через:  Facebook Google Twitter Vk Yandex Mail.ru

Bloc Party - Luno - текст песни, таба, бас-таба, видео

Печатать
Просмотров: 211
Авторы музыки: Gordon Moakes, Matt Tong, Kele Okereke, Russell Lissack
Авторы текста: Gordon Moakes, Matt Tong, Kele Okereke, Russell Lissack
Band: Bloc Party
Song: Luno
Tabbed by: www.alittleleftbehind.tk (Daniel King)

Intro

e]-------------|
b]--12h15------|
g]---------10--|
d]-------------|
a]-------------|
e]-------------|

Chorus 1

e]----------------------------------------------------|
b]----------------------------------------------------|
g]--7-(x16)-14-(x16)-11-(x16)-12-(x8)-6-(x8)----------|
d]----------------------------------------------------|
a]----------------------------------------------------|
e]----------------------------------------------------|

e]---------------------------------------------------|
b]---------------------------------------------------|
g]--7-(x16)-7b(x16)-8-(x8)-9-(x8)-10-(x8)-11-(x8)----|
d]---------------------------------------------------|
a]---------------------------------------------------|
e]---------------------------------------------------|

Verse 2

e]--------------3-2-----------------------------------3-2----------------------|
b]----3---3---3-------3---3---3-------------3---3---3-------3---3---3----------|
g]--4---4---4-------4---4---4---3h4-3h4---4---4---4-------4---4---4---3h4-3h4--|
d]-----------------------------------------------------------------------------|
a]-----------------------------------------------------------------------------|
e]-----------------------------------------------------------------------------|

e]----5---3---2-----5---3---2-----5---3---2-----5---3---2----|
b]--0---0---0-----0---0---0-----0---0---0-----0---0---0------|
g]-----------------------------------------------------------|
d]-----------------------------------------------------------|
a]-----------------------------------------------------------|
e]-----------------------------------------------------------|

Chorus 2

Guitar 1

e]---------------------------------------------------|
b]--0---0---0---0---0---0---0---0--------------------|
g]--4---4---4---4---4---4---4---4--------------------|
d]---------------------------------------------------|
a]---------------------------------------------------|
e]---------------------------------------------------|

Guitar 2

e]--/-10-10-10-9--10-9---/-10-10-10-9--12-9--|
b]-------------------------------------------|
g]-------------------------------------------|
d]-------------------------------------------|
a]-------------------------------------------|
e]-------------------------------------------|

e]--/-10-10-10-9-----------14----------15----------14----------17----|
b]-------------------15----------15----------15----------15----------|
g]----------------16----16----16----16----16----16----16----16-------|
d]-------------------------------------------------------------------|
a]-------------------------------------------------------------------|
e]-------------------------------------------------------------------|

e]--/-10-10-10-9--10-9---/-10-10-10-9--12-9--|
b]-------------------------------------------|
g]-------------------------------------------|
d]-------------------------------------------|
a]-------------------------------------------|
e]-------------------------------------------|

e]--9--9--9--9--9--9--9--9--9--9--9--9--9--9--9--10--|
b]--10-10-10-10-10-10-10-10-10-10-10-10-10-10-10-10--|
g]---------------------------------------------------|
d]---------------------------------------------------|
a]---------------------------------------------------|
e]---------------------------------------------------|

Solo

e]-------------------------------------------------------------------------------------|
b]-------------------------------------------------------------------------------------|
g]-------------------------------------------------------------------------------------|
d]--19-19-19-19-19-19-19--16-17-16--14-17-16--14-17-16--12~--12-14-12-16--16-17-19-----|
a]-------------------------------------------------------------------------------------|
e]-------------------------------------------------------------------------------------|

e]----------------------------------------------------------------|
b]----------------------------------------------------------------|
g]--7-7-7--6-6-6---------4-4-4----------------7-4-7-4--9-6-9-6----|
d]----------------7-7-7---------2-2-2--4-4-4----------------------|
a]--5-5-5--4-4-4---------2-2-2------------------------------------|
e]----------------5-5-5---------0-0-0--2-2-2----------------------|

e]---------------------------------------------------|
b]---------------------------------------------------|
g]--14-14-14-14-14-14-14-14-14-14-14-14-14-14-14-14--|
d]---------------------------------------------------|
a]--12-12-12-12-12-12-12-12-12-12-12-12-12-12-12-12--|
e]---------------------------------------------------|

Bridge

Guitar 1

e]-----------------------------------------------------------|
b]-----------------------------------------------------------|
g]-----------------------------------------------------------|
d]-----------------------------------------------------------|
a]--9-9-9--9-9-9--9-9-9--9-9-9--9-9-9--9-9-9--9-9-9--9-9-9---|
e]--7-7-7--7-7-7--7-7-7--7-7-7--7-7-7--7-7-7--7-7-7--7-7-7---|

e]-----------------------------------------------------------|
b]--8-8-8--8-8-8--8-8-8--8-8-8-------------------------------|
g]-----------------------------------------------------------|
d]-----------------------------------------------------------|
a]--9-9-9--9-9-9--9-9-9--9-9-9--9-9-9--9-9-9--9-9-9--9-9-9---|
e]--7-7-7--7-7-7--7-7-7--7-7-7--7-7-7--7-7-7--7-7-7--7-7-7---|

Guitar 2

e]------------------------3-2-------------------------3-2----|
b]--3-3-3--3-3-3--3-3-3---3-3---3-3-3--3-3-3--3-3-3---3-3----|
g]--4-4-4--4-4-4--4-4-4---------4-4-4--4-4-4--4-4-4----------|
d]-----------------------------------------------------------|
a]-----------------------------------------------------------|
e]-----------------------------------------------------------|

e]--3-3-3--3-3-3--3-3-3---3-2-------------------------3-2----|
b]------------------------3-3---3-3-3--3-3-3--3-3-3---3-3----|
g]--4-4-4--4-4-4--4-4-4---------4-4-4--4-4-4--4-4-4----------|
d]-----------------------------------------------------------|
a]-----------------------------------------------------------|
e]-----------------------------------------------------------|

e]------5-3-2-------5-3-2------5-3-2------5-3-2--------------|
b]--0-0---------0-0--------0-0--------0-0--------------------|
g]-----------------------------------------------------------|
d]-----------------------------------------------------------|
a]-----------------------------------------------------------|
e]-----------------------------------------------------------|


e]--3-3-3--3-3-3--3-3-3------5-3-2------5-3-2-----|
b]--0-0-0--0-0-0--0-0-0--0-0--------0-0-----------|
g]------------------------------------------------|
d]------------------------------------------------|
a]------------------------------------------------|
e]------------------------------------------------|

Chorus 3

Guitar 1

e]-------------------------------------------------------|
b]-------------------------------------------------------|
g]--12-12-12-11---12-12-12-11---12-12-12-11--4--4--4--4--|
d]-------------------------------------------------------|
a]--10-10-10-9----10-10-10-9----10-10-10-9---2--2--2--2--|
e]-------------------------------------------------------|

Guitar 2

e]--/-10-10-10-9--10-9---/-10-10-10-9--12-9--|
b]-------------------------------------------|
g]-------------------------------------------|
d]-------------------------------------------|
a]-------------------------------------------|
e]-------------------------------------------|

e]--/-10-10-10-9-----------14----------15----------14----------17----|
b]-------------------15----------15----------15----------15----------|
g]----------------16----16----16----16----16----16----16----16-------|
d]-------------------------------------------------------------------|
a]-------------------------------------------------------------------|
e]-------------------------------------------------------------------|

e]--/-10-10-10-9--10-9---/-10-10-10-9--12-9--|
b]-------------------------------------------|
g]-------------------------------------------|
d]-------------------------------------------|
a]-------------------------------------------|
e]-------------------------------------------|

e]--9--9--9--9--9--9--9--9--9--9--9--9--9--9--9--10--|
b]--10-10-10-10-10-10-10-10-10-10-10-10-10-10-10-10--|
g]---------------------------------------------------|
d]---------------------------------------------------|
a]---------------------------------------------------|
e]---------------------------------------------------|

Solo

e]-------------------------------------------------------------------------------------|
b]-------------------------------------------------------------------------------------|
g]-------------------------------------------------------------------------------------|
d]--19-19-19-19-19-19-19--16-17-16--14-17-16--14-17-16--12~--12-14-12-16--16-17-19-----|
a]-------------------------------------------------------------------------------------|
e]-------------------------------------------------------------------------------------|

e]----------------------------------------------------------------|
b]----------------------------------------------------------------|
g]--7-7-7--6-6-6---------4-4-4----------------7-4-7-4--9-6-9-6----|
d]----------------7-7-7---------2-2-2--4-4-4----------------------|
a]--5-5-5--4-4-4---------2-2-2------------------------------------|
e]----------------5-5-5---------0-0-0--2-2-2----------------------|

e]---------------------------------------------------|
b]---------------------------------------------------|
g]--14-14-14-14-14-14-14-14-14-14-14-14-14-14-14-14--|
d]---------------------------------------------------|
a]--12-12-12-12-12-12-12-12-12-12-12-12-12-12-12-12--|
e]---------------------------------------------------|
Добавлено: 24.07.2012
Другие материалы по этой песне:

Страница создана 06.03.2012
http://primanota.ru/bloc-party/luno-chords.htm
Привет, Гость.
Предлагаем пройти революционный курс по гитаре.
Подарок от PrimaNota.Ru, забирай!