PrimaNota.ru - самый крупный в мире бесплатный архив песенных текстов, аккордов, табулатур и нот


Bloc Party - One Month Off - текст песни, таба, бас-таба, видео

Регистрация Запомнить меня
Войти через:  Facebook Google Twitter Vk Yandex Mail.ru

Bloc Party - One Month Off - текст песни, таба, бас-таба, видео

Печатать
Просмотров: 236
Авторы музыки: Bloc Party

i'll do the rest of the song soon.

First time round.
------------------------------------------------------|
------------------------------------------------------|
------------------------------------------------------|
------------------------------------------------------|
-7------15-----12----10-------------------------------|
-5------13-----10-----8-------------------------------|

second time.

-------------------------------------------------------|
-------------------------------------------------------|
-------------------------------------------------------|
-------------------------------------------------------|
-7------15-----12----10----------12--------------------|
-5------13-----10-----8----------10--------------------|

alternate way.


------------------------------------------------------|
------------------------------------------------------|
------------------------------------------------------|
------10----7---5--7----------------------------------|
-7-----8----5---3--5----------------------------------|
-5----------------------------------------------------|
CHORUS :)

-------------------------------------------------------|
-------------------------------------------------------|
-------------------------------------------------------|
---------------10--------------------------------------|
-7------10-----8----10---------------------------------|
-5-------8-----------8---------------------------------|

fourth time

----------------------------------------------------------|
----------------------------------------------------------|
----------------------------------------------------------|
---------------10----------------7------------------------|
-7------10-----8----10-----------5------------------------|
-5-------8-----------8------------------------------------|
Добавлено: 15.06.2012
Другие материалы по этой песне:

Страница создана 25.02.2012
http://primanota.ru/bloc-party/one-month-off-chords.htm
Привет, Гость.
Предлагаем пройти революционный курс по гитаре.
Подарок от PrimaNota.Ru, забирай!