PrimaNota.ru - самый крупный в мире бесплатный архив песенных текстов, аккордов, табулатур и нот


Blizzard - Destiny - таба, видео

Регистрация Запомнить меня
Войти через:  Facebook Google Twitter Vk Yandex Mail.ru

Blizzard - Destiny - таба, видео

Печатать
Просмотров: 159
Destiny
Blizzard  -  Vulgar Use of Disgust  (1993)

Intro:
(Use palm mute, heavy distortion, and delay w/echo set appropriatey.)
1st guitar: (Play this staff 2X)
E-----------------------------------------------------------------------------|
B-----------------------------------------------------------------------------|
G----------3-0-0-------3-0--3p0------------------3-0-0--------3-0--3p0--------|
D----0-3----------0-3-------------h3-------0-3------------0-3------------h3---|
A-----------------------------------------------------------------------------|
E--3-----------------------------------3--------------------------------------|

2nd guitar comes in slightly out of time (along with the accompanying
drum lick) at a much higher volume and plays this staff during the
second time  the 1st guitar plays the above staff. Play 1X:
E-----------------------------------------------------------------------------|
B-----------------------------------------------------------------------------|
G---------3-0-0-----3-0-0--------------3-0-0-----3-0-3p0----------------------|
D----0-3--------0-3-------h3p0-----0-3-------0-3------------------------------|
A-----------------------------------------------------------------------------|
E--3----------------------------3---------------------------------------------|

The Bass plays this:
|--------------------------|----------------------------|
|--------------------------|----------------------------|
|----2---------------------|----4-----------------------|
|-------4------------------|-------5--------------------|
|-2--------2---------2--5b-|-2--------2--------2--x--5b-|
|-------------2--5b--------|-------------2--5-----------|

Both Guitars:
E-----------------------------------------------------------------------------|
B-----------------------------------------------------------------------------|
G--2-5-5p4p2-4-2p0-2-2-5-5p4p2-4-2p0-2-2-----0-5p4p2-4-2p0-2-2-5p4p2-5p4p2----|
D----------------------------------------0h2----------------------------------|
A-----------------------------------------------------------------------------|
E-----------------------------------------------------------------------------|

E---------------------5/7--10-10/12=12\u---7-5-5/7---5/7---7/10--10/12---------|
B---------------------*------------------------------*-------------------------|phrase cont'=>
G-5p4p2-5p4-4p2-------2/4---7--7 /9^10\u---4-2-2/4---2/4-4=4 /7-7=7 /9---------|
D------------------------------------------------------------------------------|
A------------------------------------------------------------------------------|
E------------------------------------------------------------------------------|

E--12=12\10--7=7\5----5/7---5/7-10-10/12=12\u--7-5-5/7---7-7/10-12-12/14-10\u-|
B---------------------------*---------------------------*---------------------|
G------9 \7----4\2--2=2/4---2/4--7--7 /9^10\u--4-2-2/4---4-4 /7--9--9/11--7\u-|
D-----------------------------------------------------------------------------|
A-----------------------------------------------------------------------------|
E-----------------------------------------------------------------------------|

E-----------------------------------------------------------------------------|
B-------9-7\u---------9-7\u---------------------------------------------------|
G-------9-7\u--9-7\u--9-7\u--9-7\u--------------------------------------------|
D-------7-5\u--9-7\u--7-5\u--9-7\u--------------------------------------------|
A--------------7-5\u---------7-5\u--------------------------------------------|
E--*0-------------------------------------------------------------------------|

E------------------------------9-------------(12^14)-(12^14)--12-9-------9----|
B-------------------------9h12---12^14--12-9---------------------------9---12-|
G--------------------9h11------------------------------------------11^(**)----|
D---------------9h11----------------------------------------------------------|
A---9-10-11-------------------------------------------------------------------|
E---7--8--9-------------------------------------------------------------------|

E-------------------9-----------------------------9---------------------------|
B-----------------9--12-------------------------9---12-------------9----------|
G--11-11---(11^13)------(11^13)-(11^13)-(11^12)--------(11^**)-9------12p11p9-|
D-----------------------------------------------------------------------------|
A-----------------------------------------------------------------------------|
E-----------------------------------------------------------------------------|

E--------------------9--------------------------------------------------------|
B------------------9---12--9--------------------------------------------------|
G-11p10p9----11^(**)---------(11^12)--9---------------------------------------|
D-----------------------------------------------------------------------------|
A-----------------------------------------------------------------------------|
E-----------------------------------------------------------------------------|

Lyrics part:
E------------------------------------|
B----------------6-------------------|
G----------------5---------3-3-------|
D----------------3----5-5--3-3--5-3--|
A--5-5--8-8--5--------5-5-------5-3--|
E--3-3--6-6--3-----------------------|

E-----------------------------------------------------------------------------|
B-----------------------------------------------------------------------------|
G-----------------------------------------------------------------------------|
D--3h5------3-----------------------------------------------------------------|
A------3h5----h5--------------------------------------------------------------|
E----------------3^4r3*-------------------------------------------------------|
* -- Classic Billy bend similar to behind the nut bends on "Iron Man" intro.

Tiffanys Solo:
E-----------------------------------------------------------------------------|
B---3=3----6==6----8======8 /9\u----------------------------------------------|
G--(5^7)--(8^10)---10^12r10/11\u----------------------------------------------|
D--------------------------***------------------------------------------------|
A-----------------------------------------------------------------------------|
E-----------------------------------------------------------------------------|

E------------------------------------------15----------------------------------|
B--3=3----6==6-----8==8----10=10--------15----(18^20)-(18^20)-(18^20)-(18^20---|)
G-(5^7)--(8^10)--(10^12)--(12^14)----17----------------------------------------|
D------------------------------------------------------------------------------|
A------------------------------------------------------------------------------|
E------------------------------------------------------------------------------|

E------(18^20)-(18^20)-----18p15-----18p15--------------------------15--------|
B---15------------------18-------h18-------h18-18p15-------------15-----18-15-|
G----------------------------------------------------h17----17^18-------------|
D-----------------------------------------------------------------------------|
A-----------------------------------------------------------------------------|
E-----------------------------------------------------------------------------|

E------------------15---------------------------------------------------------|
B--------------------h18p15----------------------------6========6-------------|
G----17-15---17^18----------h17p15-------3-------3-----5^7-(7)-(7)-3----------|
D--------------------------------------5-3-5p3h5------------*-----------------|
A-----------------------------------------------------------------------------|
E-----------------------------------------------------------------------------|

E-----------------------------------------------------------------------------|
B--6========6-----6========6----------6---------------------------------------|
G--5^7-(7)-(7)-3--5^7-(7)-(7)-3---5^7===7r5p3---------------------------------|
D---------------------------------------------h5------------------------------|
A-----------------------------------------------------------------------------|
E-----------------------------------------------------------------------------|

Bass run throughout Solo:
Fm                          Em
|---------------------------|--------------------------|
|---------------------------|--------------------------|
|---------------------------|--------------------------|
|--4--4--4---------------4--|-3--2---------------------|
|-----------4---------4-----|-------2---------0--2--5b-|
|--------------2--5b--------|----------0--3b-----------|

Billys Solo:
||---------------------------||
||---------------------------||
||o-4-4-4-4-4-4-4-4-4-4-4-4-o||
||o-4-4-4-4-4-4-4-4-4-4-4-4-o||
||--2-2-2-2-2-2-2-2-2-2-2-2--||
||---------------------------||

|-|--------------~~~~~~|~~~~~~-----------|----------------------10-----|
| |-----~~~~~-10b------|-------r--7--10--|-------~~~~~~~~~-/12------12-|
| |-9b--7--------------|-----------------|-9b---7----------------------|
| |--------------------|-----------------|-----------------------------|
| |--------------------|-----------------|-----------------------------|
| |--------------------|-----------------|-----------------------------|

| |--------------------|
| |--------------------|
| |--------------------|
| |--------------------|
| |-2----5---4---3---2-|
|-|--------------------|

|--~~~~~~~~~~~~~--------|-12b--------~~~~~~~-|-----------------|
|-12-------------12--12-|--------12-12-------|-----------------|
|-----------------------|--------------------|-----9b----7--9--|
|-----------------------|--------------------|-----------------|
|-----------------------|--------------------|-----------------|
|-----------------------|--------------------|-----------------|

|--------------------|-7-------------10--12--12b--r--|
|------------------7-|----10--10p12------------------|
|--~~~~~~~~~~-9b-----|-------------------------------|
|-9------------------|-------------------------------|
|--------------------|-------------------------------|
|--------------------|-------------------------------|

|-|---------10------12b-|-----12b--r--10--12-|--~~~~~--------------------|
| |-12--12--------------|--------------------|-12-----10b----------------|
| |---------------------|--------------------|-------------11\9-------7b-|
| |---------------------|--------------------|---------------------------|
| |---------------------|--------------------|---------------------------|
| |---------------------|--------------------|---------------------------|

| |---------------------|--------------------|---------------------------|
| |------------8--------|-------8------------|------------------8---8----|
| |------------9--------|-------9------------|------------------9---9----|
| |------------9--------|-------9------------|----------9-----------9----|
| |------------7--------|-------7------------|----7----------------------|
|-|---------------------|--------------------|---------------------------|

|-|--------------------------|-------------------|--------------------7-|
| |--------------------------|-------------------|------------------7---|
| |--~~~~~-------------------|-------------------|-7-7--~~~~~---9b------|
| |-9------7-----------------|---------7---9p7---|------9---------------|
| |-----------9\7----5b---~~~|~~~-7/9------------|----------------------|
| |----------------------7---|-------------------|----------------------|

| |--------------------------|
| |------------------8---8---|
| |------------------9---9---|
| |-----------9----------9---|
| |----7---------------------|
|-|--------------------------|

|----------------10-12-|-12b--------~~~~~~~-14b-|
|-10-10h12-12-12-------|--------12-12-----------|
|----------------------|------------------------|
|----------------------|------------------------|
|----------------------|------------------------|
|----------------------|------------------------|

|-|-------14--12--10---|------------------------|----------------|
| |--------------------|-12-10---------~~~~-10b-|--10--8--7------|
| |--------------------|-------11/9-9/11--------|----------------|
| |--------------------|------------------------|----------------|
| |--------------------|------------------------|----------------|
| |--------------------|------------------------|----------------|

| |--------------------|------------------------|----------------|
| |--------------------|------------------------|----------------|
| |--------------------|-Play last--------------|----------------|
| |-----4---3-----2--x-|-measure----------------|-9--7-----------|
| |--------------------|------------------------|-------10--9--5-|
|-|-2------------------|------------------------|----------------|

|-|-------------------|---------------------|--------------||
| |-9b--7-------------|---------7--b--------|-----9--b-----||
| |---------11------~~|~~~~~~~--7--b--------|~~~~-9--b-----||
| |------------10--9--|-------------------9-|------------9-||
| |-------------------|---------------------|--------------||
| |-------------------|---------------------|--------------||

| |-------------------|---------------------|
| |-------------------|---------------------|
| |-------------------|---------------------|
| |-------------------|---------------------|
| |-7---5---4---3-----|-2----5------4--3--2-|
|-|-------------------|---------------------|

|-7-----------7-|-----------------~~|----10-------|----------------|
|-7----x------7-|----------/12--12--|-12--------7-|----------~~~~~-|
|---------------|-------------------|-----------7-|---------9b-----|
|---------------|-------------------|-------------|-9--------------|
|---------------|-------------------|-------------|----------------|
|---------------|-------------------|-------------|----------------|

|-----------------|--------------|--------------|--7---------------|
|-----------------|--7----7------|--------------|-------------7b---|
|-7--9------~~~~~-|--7----7------|-----------9b-|-------------9b---|
|-------9--9------|--7----7------|-7h9----------|------------------|
|-----------------|--------------|--------------|------------------|
|-----------------|--------------|--------------|------------------|

|--~~~~~~~~~~~--|--------------|------------------------|-------------|
|-7b------------|--------------|------~~~~~~------------|-----~~~~~---|
|-9b------------|------9b-r-p7-|-9b--9b--------r-p0--7b-|--r-b------r-|
|---------------|--------------|------------------------|-------------|
|---------------|--------------|------------------------|-------------|
|---------------|--------------|------------------------|-------------|

|------------------10-|------------10---|-12b--12b-------r--|
|----------x---/12----|--------10-------|-------------------|
|--~~~~~~~------------|-----------------|-------------------|
|-9-------------------|-----------------|-------------------|
|---------------------|-----------------|-------------------|
|---------------------|-----------------|-------------------|

|-12p10-----------|----------------------|-----------------|
|----------10-10--|-10-------~~~~~~~-----|------~~~~~------|
|-----------------|----9/10/11--------9b-|--r--b------r--\-|
|-----------------|----------------------|-----------------|
|-----------------|----------------------|-----------------|
|-----------------|----------------------|-----------------|

|---------------------|------------------|------------------|
|---------------------|------------------|--------7--b------|
|--~~~~~--------------|------------------|--------7--b------|
|-9-----7-------------|------------------|----------------9-|
|----------10----9--5-|-7--5--4--0--3--2-|------------------|
|---------------------|------------------|------------------|

|-------------------|-----------------------|-(10)-(12)-(12)b--(12)b-----||
|---------9--b------|-------------(10)-(12)-|----------------------------||
|~~~~~~---9--b------|-----7-/(11)-----------|----------------------------||
|------9---------9--|---------------------9-|----------------7---------9-||
|-------------------|-----------------------|----------------------------||
|-------------------|-----------------------|----------------------------||

|-|-10-12--~~~~~~---|---19-22b---r-22-22-|-22----~~~~~-----------|
| |-------12-----\--|--------------------|----22b------22b-\-----|
| |-----------------|--------------------|-----------------------|
| |-----------------|--------------------|-----------------------|
| |-----------------|--------------------|-----------------------|
| |-----------------|--------------------|-----------------------|

| |-----------------|--------------------|-----------------------|
| |-------7---------|-------7-7---x-9\---|--------7-7---x-9\-----|
| |-------7---------|-------7-7---x-9\---|--------7-7---x-9\-----|
| |-------7---------|--------------------|-----------------------|
| |-----------------|--------------------|-----------------------|
|-|-----------------|--------------------|-----------------------|

|---------------------|------------------|------------------|
|-------15-17b--15b-r-|--~~~~~~~~-x-17b--|------r--17--15b--|
|--/16----------------|-16---------------|------------------|
|---------------------|------------------|------------------|
|---------------------|------------------|------------------|
|---------------------|------------------|------------------|

|------------------------|------------------10-|
|--~~~~~~~~~-------------|---~~~~~~~~~-/12-----|
|-16-----------9---7---9-|-/11-----------------|
|------------------------|---------------------|
|------------------------|---------------------|
|------------------------|---------------------|

|-|--~~~~~~~~~~---------|-22b--------22-22--|-22---~~~~~~~-----|
| |-12---------------19-|-------------------|----22b-------22b-|
| |---------------------|-------------------|------------------|
| |---------------------|-------------------|------------------|
| |---------------------|-------------------|------------------|
| |---------------------|-------------------|------------------|

| |---------------------|-------------------|
| |------12-12---x--14--|-------------------|
| |------12-12---x--14--|-------------------|
| |------12-12---x--14--|-------------------|
| |---------------------|-------------------|
|-|---------------------|-------------------|

|-------~~~~~----------|-----------------|-----------------|
|--r-22b------------~~~|~~~~~~~-----19b--|-19-----22b-22b--|
|-------------21b--19--|--------21--21b--|-----------------|
|----------------------|-----------------|-----------------|
|----------------------|-----------------|-----------------|
|----------------------|-----------------|-----------------|

|---22----~~~~~~~~-|------22b--r--22--22-|
|-------22b--------|---19----------------|
|------------------|---------------------|
|------------------|---------------------|
|------------------|---------------------|
|------------------|---------------------|

|-|-22-------------------------|--------------------------|
| |-----22b---19--22p19--------|--------------------------|
| |----------------------19~~~-|--------------------------|
| |----------------------------|-21p19---19---~~~~~~~-----|
| |----------------------------|-------------21-------x---|
| |----------------------------|--------------------------|

| |----------------------------|--------------------------|
| |-----------14-14----16\-----|---------14--14-----------|
| |-----------14-14----16\-----|---------14--14------16---|
| |-----------14-14----16\-----|---------14--14-----------|
| |----------------------------|--------------------------|
|-|----------------------------|--------------------------|

|-|---------------~~~~~-----|------------|
| |-16b----10----6-----7----|------------|
| |-------------------------|-9--7--6--5-|
| |-------------------------|------------|
| |-------------------------|------------|
| |-------------------------|------------|

| |-------------------------|------------|------------------|
| |-------------------------|------------|----7-7---7---7---|
| |-------------------------|------------|----7-7---7---7---|
| |---9----7----------------|------------|----7-7---7---7---|
| |-------------10-----9--6-|-7--5--4--3-|-2----------------|
|-|-------------------------|------------|------------------|

Play this part x2           repeat this part until fade away:
E---------------------------|5h6p5---------5h6p5------------|
B---------------------------|-------8p6h8---------8p6h8-----|
G---------------------------|-------------------------------|
D--3h5------3---------------|-------------------------------|
A------3h5----h5------------|-------------------------------|
E----------------3^4r3*-----|-------------------------------|
Добавлено: 13.03.2012
Другие материалы по этой песне:
  • Аккорды и текст

Страница создана 13.03.2012
http://primanota.ru/blizzard/destiny-chords.htm
Привет, Гость.
Предлагаем пройти революционный курс по гитаре.
Подарок от PrimaNota.Ru, забирай!