PrimaNota.ru - самый крупный в мире бесплатный архив песенных текстов, аккордов, табулатур и нот


Blizzard - Echoes - таба, видео

Регистрация Запомнить меня
Войти через:  Facebook Google Twitter Vk Yandex Mail.ru

Blizzard - Echoes - таба, видео

Печатать
Просмотров: 144
ECHOES   (Agusto/Arnold/Draw/Smiths/Rathman)
Blizzard

Slowly & Softly

E ||---12-(14)------------------------|--12-(14)-------------------------|
B ||----------------------------------|----------------------------------|
G ||----------------------------------|----------------------------------|
D ||----------------------------------|----------------------------------|
A ||----------------------------------|----------------------------------|
E ||----------------------------------|----------------------------------|

E ||-----B----------------------------|----B-----------------------------|
B ||---12-(14)--------------------12--|--12-(14)-------------------------|
G ||----------------------------------|----------------------------------|
D ||----------------------------------|----------------------------------|
A ||----------------------------------|----------------------------------|
E ||----------------------------------|----------------------------------|

E ||---12-(14)------------------12--9-|--12-(14)------------12-----------|
B ||----------------------------------|-----------------------------12---|
G ||----------------------------------|----------------------------------|
D ||----------------------------------|----------------------------------|
A ||----------------------------------|----------------------------------|
E ||----------------------------------|----------------------------------|

E ||-----B----------------------------|----------------------------------|
B ||---12-(14)---------12---B--R------|---B--------------B--R------------|
G ||----------------------11(13)11--9-|-11-(13)--------11(13)11--9-------|
D ||----------------------------------|------------------------------9---|
A ||----------------------------------|----------------------------------|
E ||----------------------------------|----------------------------------|

E ||----------------------------------|----------------------------------|
B ||----------------------------------|---H----------B------------B------|
G ||------------------------------9---|--9-11------11(13)-9--11-11(13)-9-|
D ||--------------------7--9--11------|----------------------------------|
A ||----------------------------------|----------------------------------|
E ||----------------------------------|----------------------------------|

E ||---B------------------------------|---B------------------------------|
B ||-11-(13)-----------------------9--|-12-(14)--------------------------|
G ||-----------------------------9----|----------------------------------|
D ||----------------------------------|----------------------------------|
A ||----------------------------------|----------------------------------|
E ||----------------------------------|----------------------------------|

E ||--12-(13)-------------------------|-11-(12)------------------11-(12)-|
B ||----------------------------------|----------------------------------|
G ||----------------------------------|----------------------------------|
D ||----------------------------------|----------------------------------|
A ||----------------------------------|----------------------------------|
E ||----------------------------------|----------------------------------|

E ||--11------------------------------|-------------R--------------------|
B ||----------------------------------|----------(14)13------------------|
G ||----------------------------------|-----------------13---S-----------|
D ||----------------------------------|--------------------13\11-10------|
A ||----------------------------------|-----------------------------11---|
E ||----------------------------------|----------------------------------|

E ||----------------------------------|----------------------------------|
B ||----------------------------------|----------------------P-----------|
G ||------------11(13)11-9--11-11(13)~|~~~~~~~~---------11--9-8----------|
D ||-11-------------------------------|---------------------------11-9---|
G ||----------------------------------|----------------------------------|
E ||----------------------------------|----------------------------------|

E ||----------------------------------|-------------------9---------B----|
B ||----------------------------------|--------------B------9--12-12(14)-|
G ||----------------------------------|----------9-11(13)----------------|
D ||-11-------------------------------|------11--------------------------|
A ||----------------------------------|----------------------------------|
E ||----------------------------------|----------------------------------|

E ||--------------------------P-------|----------------------------------|
B ||------------------------10-9------|---S--S-------B------------B------|
G ||-----------------------------11-9-|-11/13\11---11(13)-9--11-11(13)-9-|
D ||----------------------------------|----------------------------------|
A ||----------------------------------|----------------------------------|
E ||----------------------------------|----------------------------------|

E ||-------------------------B--------|------B---------------------------|
B ||--------------B-----12-12(14)-----|-12-12(14)------------------------|
G ||------------11(13)------------9---|----------------------------------|
D ||-11-------------------------------|----------------------------------|
A ||----------------------------------|----------------------------------|
E ||----------------------------------|----------------------------------|

E ||--12-(13)-------------------------|-11-(12)------------------11-(12)-|
B ||----------------------------------|----------------------------------|
G ||----------------------------------|----------------------------------|
D ||----------------------------------|----------------------------------|
A ||----------------------------------|----------------------------------|
E ||----------------------------------|----------------------------------|

E ||--11------------------------------|-------------R--------------------|
B ||----------------------------------|----------(14)13------------------|
G ||----------------------------------|-----------------13---S-----------|
D ||----------------------------------|--------------------13\11-10---11-|
A ||----------------------------------|-----------------------------11---|
E ||----------------------------------|----------------------------------|

Bm                      C        Em
Open your heart, I'm coming home

SOLO:(Gtr. 2 electric plays Rhy. fig. 2 - 8 X)
 (Rhythm fig 2)                                           (end Rhy. fig 2)
e-|--------------------------|----------------------|-----------------------||
B-|--------------------------|----------------------|-----------------------||
G-|--------------------------|----------------------|-----------------------||
D-|--------------------------|----------------------|-----------------------||
A-|--------------------------|----------------------|-----------------------||
E-|-10\--0--2-2>(3)-2vvvvvv--|--0--2-2>(3)-2vvvvvv--|--0-0-2-2>(3)-2vvvvvvv-||

|-----------------------------------------------------------------------------|
|-3>(5)=======(5)vvvvvvvvvvvvv(5)=====>3--3>(5)==(5)vvvvvvvvvvvvvvv(5)====>3--|
|-----------------------------------------------------------------------------|
|-----------------------------------------------------------------------------|
|-----------------------------------------------------------------------------|
|-----------------------------------------------------------------------------|

|-----------------------------------------------------------------------------|
|-3>(5)vvvvvvvvvvvvvvvvvvvv>(4)>(5)>===(4)>(5)>===(4)>(5)------3>(5)vvvvvvvv--|
|-----------------------------------------------------------------------------|
|-----------------------------------------------------------------------------|
|-----------------------------------------------------------------------------|
|-----------------------------------------------------------------------------|

|-----------------------------------------------------------------------------|
|--3/7vvvvvvvvvv--5-7-7>(8)>7vvvvvvvvv---5-7-7>(8)>7vvvvvvvv---5-7-7>(8)>7vvvv|
|-----------------------------------------------------------------------------|
|-----------------------------------------------------------------------------|
|-----------------------------------------------------------------------------|
|-----------------------------------------------------------------------------|

|---------------5--7-5-7--7>(8)vvvvvvvvvv(8)==>7>(8)--7>(8)vvvvvvvv-7---|
|--5vvvvvv-7-8----------------------------------------------------------|
|-----------------------------------------------------------------------|
|-----------------------------------------------------------------------|
|-----------------------------------------------------------------------|
|-----------------------------------------------------------------------|

|--7>(8)vvvvvvv(8)===>7--7>(8)vvvvvvvvv----------12-----------------------|
|----------------------------------------15>(17)-----15>(17)vvvvvvv>(16)--|
|-------------------------------------------------------------------------|
|-------------------------------------------------------------------------|
|-------------------------------------------------------------------------|
|-------------------------------------------------------------------------|

|------------12---15-----------12--15-------------------------|
|---15>(17)-----------15>(17)----------15>(17)vvvvvvvvvvvvvv--|
|-------------------------------------------------------------|
|-------------------------------------------------------------|
|-------------------------------------------------------------|
|-------------------------------------------------------------|

|----------------------------------12------------------------------------|
|--15>(17)======>15>12----------12-----15>(17)=====>(16)>(17)=======>15--|
|-----------------------14>(16)------------------------------------------|
|------------------------------------------------------------------------|
|------------------------------------------------------------------------|
|------------------------------------------------------------------------|

|----------14-15/17-17/19--17--19--19>(20)========(20)>19---19>(20)-17>19--|
|--15>(17)-----------------------------------------------------------------|
|--------------------------------------------------------------------------|
|--------------------------------------------------------------------------|
|--------------------------------------------------------------------------|
|--------------------------------------------------------------------------|

                                                        v-- slow dive w/ bar
|--19>17--20--19>(20)==>19--19>(20)==========(20)==>19>17--19--------------||
|--------------------------------------------------------------------------||
|--------------------------------------------------------------------------||
|--------------------------------------------------------------------------||
|--------------------------------------------------------------------------||
|--------------------------------------------------------------------------||
Play this part with a pitch-transposer. It's one octave higher than written.

  (piano)                                                (repeat 4X)
E-|-----15--------15--------18--------18--------11--------11--------------|
B-|-----13--------13--------16--------16---------9---------9--------------|
G-|----------------------------------------------------------------------*|
D-|----------------------------------------------------------------------*|
A-|-----------------------------------------------------------------------|
E-|-----------------------------------------------------------------------|
     ^                 ^                    ^                      ^
  (bells sound on accent marks above)

   (piano) (Lyrics start)                                      (repeat 4X)
E-|------3--------3--------6--------6-------------------------------------|
B-|------1--------1--------4--------4--------1--------1-------------------|
G-|*-----------------------------------------1--------1------------------*|
D-|*---------------------------------------------------------------------*|
A-|---------------------------------------------------------3----------3--|
E-|-----------------------------------------------------------------------|


   The low notes in the following are doubled by another guitar and a bass:
E-|-------------------------------------------|
B-|---4----4----3----3----1----1----0---------|
G-|---5----5----3----3----1----1----0---------|
D-|-------------------------------------------|
A-|---3----------------------------------2----|
E-|-------------4---------3---------3---------|

E-|---------------------------------------------|
B-|----4----4----3----3----1----1----0----------|
G-|----5----5----3----3----1----1----0----------|
D-|---------------------------------------------|
A-|----3-----3--1-------------------------------|
E-|--------------4---------3----------3----3----|

                                                               (repeat 4X)
E-|------3--------3--------6--------6-------------------------------------|
B-|------1--------1--------4--------4--------1--------1-------------------|
G-|*-----------------------------------------1--------1------------------*|
D-|*---------------------------------------------------------------------*|
A-|---------------------------------------------------------3----------3--|
E-|-----------------------------------------------------------------------|

   Chorus (piano)
   ("The grass was greener....")
E-|------------------------------------------------------------------------|
B-|------------------------------4-----------3-----------------------3-----|
G-|*-----------------------------5-----------3-----------5-----------3-----|
D-|*--------------------------5-----5-----5-----5--------6--------3-----3--|
A-|------------------------3--------------------------6-----6--1-----------|
E-|------------------------------------3-----------4-----------------------|
  | (Gtr doubled by bass)                                                  |
E-|------------------------------------------------------------------------|
B-|------------------------------------------------------------------------|
G-|*-----------------------------------------------------------------------|
D-|*-----------------------------------------------------------------------|
A-|------------------------3--------3--------------------------------------|
E-|------------------------------------3--------3--4--------4--6--------6--|

   (Piano and Gtr. 1)
E-|------------------------------------------------------|
B-|------------4-----------3-----------------------3-----|
G-|------------5-----------3-----------5-----------3----*|
D-|---------5-----------5-----5--------6--------3-----3-*|
A-|------3--------3-----------------6-----6--1-----------|
E-|------------------3-----------4-----------------------|

  | (Gtr. 2 and bass)                                    |
E-|------------------------------------------------------|
B-|------------------------------------------------------|
G-|-----------------------------------------------------*|
D-|---------------------------5--5--------5--6----------*|
A-|------3--------3-5-6----------------------------------|
E-|------------------------------------------------------|

                                                               (repeat 4X)
E-|------3--------3--------6--------6-------------------------------------|
B-|------1--------1--------4--------4--------1--------1-------------------|
G-|*-----------------------------------------1--------1------------------*|
D-|*---------------------------------------------------------------------*|
A-|---------------------------------------------------------3----------3--|
E-|-----------------------------------------------------------------------|

   The bass notes in the following are doubled by another guitar and a bass:
E-|-------------------------------------------|
B-|---4----4----3----3----1----1----0---------|
G-|---5----5----3----3----1----1----0---------|
D-|-------------------------------------------|
A-|---3----------------------------------2----|
E-|-------------4---------3---------3---------|

E-|--------------------------------------------|
B-|----4----4----3----3----1----1----0---------|
G-|----5----5----3----3----1----1----0---------|
D-|--------------------------------------------|
A-|----3-----3--1------------------------------|
E-|--------------4---------3---------3----3----|

    Bridge:
E-|-----------------------------------|---------------------------------------|
B-|-----------------------------------|---------------------------------------|
G-|-----------------------------------|---------------------------------------|
D-|-2----2/4-4----4/5-5----5/-9--9--7-|7--9--10--7--9--5--7--7h9p7-5h7p5-3h5p3|
A-|-----------------------------------|---------------------------------------|
E-|-----------------------------------|---------------------------------------|

E-|---------------------------------------------------------------------------|
B-|---------------------------------------------------------------------------|
G-|---------------------------------------------------------------------------|
D-|-2----2/4-4----4-5-5----5/-9--9--9----5--7------7--10--9/-12----10p9--7----|
A-|---------------------------------------------------------------------------|
E-|---------------------------------------------------------------------------|

E-|---------------------------------------------------------------------------|
B-|---------------------------------------------------------------------------|
G-|---------------------------------------------------------------------------|
D-|-2----2/4-4----4/5-5----5/-9--9--7-------7--10--9----5--9--7----5--7--7/9--|
A-|---------------------------------------------------------------------------|
E-|---------------------------------------------------------------------------|

E-|---------------------------------------------------------------------------|
B-|---------------------------------------------------------------------------|
G-|---------------------------------------------------------------------------|
D-|-2----2/4-4----4-5-5----5/-9--9--9----5--7----7\5--3--2--3--0--2-----------|
A-|------------------------------------------------------------------3--0-----|
E-|------------------------------------------------------------------------3--|

Play this part with a pitch-transposer. It's one octave higher than written.
  (piano)
E-|-----15--------15--------18--------18--------11--------11--------------|
B-|-----13--------13--------16--------16---------9---------9--------------|
G-|*---------------------------------------------------------------------*|
D-|*---------------------------------------------------------------------*|
A-|-----------------------------------------------------------------------|
E-|-----------------------------------------------------------------------|
     ^                 ^                    ^                      ^
  (bells sound on accent marks above)

                                                               (repeat 4X)
E-|------3--------3--------6--------6-------------------------------------|
B-|------1--------1--------4--------4--------1--------1-------------------|
G-|*-----------------------------------------1--------1------------------*|
D-|*---------------------------------------------------------------------*|
A-|---------------------------------------------------------3----------3--|
E-|-----------------------------------------------------------------------|

   Chorus
E-|------------------------------------------------------------------------|
B-|------------------------------4-----------3-----------------------3-----|
G-|------------------------------5-----------3-----------5-----------3-----|
D-|---------------------------5-----5-----5-----5--------6--------3-----3--|
A-|------------------------3--------------------------6-----6--1-----------|
E-|------------------------------------3-----------4-----------------------|

  | (Gtr. doubled by bass)                                                 |
E-|------------------------------------------------------------------------|
B-|------------------------------------------------------------------------|
G-|------------------------------------------------------------------------|
D-|------------------------------------------------------------------------|
A-|------------------------3--------3--------------------------------------|
E-|------------------------------------3--------3--4--------4--6--------6--|

    (Piano)
E-|------------------------------------------------------|
B-|------------4-----------3-----------------------3-----|
G-|------------5-----------3-----------5-----------3-----|
D-|---------5-----------5-----5--------6--------3-----3--|
A-|------3--------3-----------------6-----6--1-----------|
E-|------------------3-----------4-----------------------|

  | (Gtr. and bass)                                      |
E-|------------------------------------------------------|
B-|------------------------------------------------------|
G-|------------------------------------------------------|
D-|---------------------------5--5--------5--6-----------|
A-|------3--------3-5-6----------------------------------|
E-|------------------------------------------------------|

Solo (slide guitar) -- notes in "<>" are very quick grace notes:
    slowly
E-|-------8~~~-11\10--/8-\6~~-----8-6-8~--\------|
B-|--4-/-8---------.-----------/8----------------|
G-|----------------------------------------------|
D-|----------------------------------------------|
A-|----------------------------------------------|
E-|----------------------------------------------|

the ' means to drop off -- a quick slide down:
E-|--------------------------------------------6-<6>/8'-10'-11'-/-13'-|
B-|--<8>\6----\4---/8---6-\-4-------------8-8~------------------------|
G-|---------------------------5-\-3-5~~--/----------------------------|
D-|-------------------------------------------------------------------|
A-|-------------------------------------------------------------------|
E-|-------------------------------------------------------------------|

E-|-/15~~~~-/20-\-18-/20-\18-<15>\13--/15~~-\----8-10-11--10\--/6--|
B-|--------------------------------------------/8.-----------------|
G-|----------------------------------------------------------------|
D-|----------------------------------------------------------------|
A-|----------------------------------------------------------------|
E-|----------------------------------------------------------------|

E-|------------------------------------------6--6-/-8--------6/8/15|
B-|-6-/-8~~~\--<6>/<8>\<6>/<7.5>-----------8-.------.-8-/-11-------|
G-|------------------------------8--\--5/8-.-----------------------|
D-|----------------------------------------------------------------|
A-|----------------------------------------------------------------|
E-|----------------------------------------------------------------|

This part is Michael walking down the entire lower half of his neck
e||-----------------------------------|------------------------------------|
B||-----------------------------------|------------------------------------|
G||-----------------------------------|------------------------------------|
D||-----------------------------------|--------------1-2-1-2-4-6-4-6-7-6---|
A||----------4----------------4-3-2-1-|0---0-2-4-2-4---------------------4-|
E||-----------------------------------|--4---------------------------------|

e||-----------------------------------|------------------------------------|
B||-----------------------------------|------------------------------------|
G||-----------------------------------|------------------------------------|
D||-----------------------------------|--------------1-2-1-2-------6-7-6---|
A||----------4----------------4-3-2-1-|0---0-2-4-2-4---------------------4-|
E||-----------------------------------|--4---------------------------------|

e||-----------------------------------|---------------------------|--------|
B||-----------------------------------|---------------------------|--------|
G||-----------------------------------|---------------------------|--------|
D||-----------------------------------|--------------1-2-1-2-1----|-----2--|
A||----------4----------------4-3-2-1-|0---0-2-4-2-4-----------4-3|2-------|
E||-----------------------------------|--4------------------------|--0-----|

Clean tone
------------------7-7----------------------7---7(9)7----|
-9^7---7(9)---7/9-----7(9)-------5-----7/9---9----------|
-----9-------------------6-6---6------------------------|
--------------------------------------------------------|
--------------------------------------------------------|
--------------------------------------------------------|

--------------------------------------------------------|
-9-9-9/7--7/5--5/4--4/5-----5----------5-5---5-7--7(9)7-|
-------------------------/6---6-----/6-----6------------|
--------------------------------------------------------|
--------------------------------------------------------|
--------------------------------------------------------|

                       Distorted guitar enters here
                       Clean tone fades
------------7-7---7(9)-|--7(9)7----7---------------------|
-5-7-5--5/7-----9------|---------------------------------|
-----------------------|---------------------------------|
-----------------------|---------------------------------|
-----------------------|---------------------------------|
-----------------------|---------------------------------|

Distorted tone (with a slide)
-/9-7-5-4---7--/9--7/9/7///4---2-4-4/5--/4-5--4-0-4-----|
--------------------------------------------------------|
--------------------------------------------------------|
--------------------------------------------------------|
--------------------------------------------------------|
--------------------------------------------------------|

-/7-7-7-7--7/9-11-12-14-14/16~~~~~~-16/17~~~~~-/17~~~~--|
--------------------------------------------------------|
--------------------------------------------------------|
--------------------------------------------------------|
--------------------------------------------------------|
--------------------------------------------------------|

-17-17-17/16/14---/9-4-/9-9----/15---19-19-19~~~~--/19\-|
--------------------------------------------------------|
--------------------------------------------------------|
--------------------------------------------------------|
--------------------------------------------------------|
--------------------------------------------------------|

--------/24-24\--12-14-14--19/21~~~---/9-9-9~--9-9------|
--------------------------------------------------------|
-/21-21-------------------------------------------------|
--------------------------------------------------------|
--------------------------------------------------------|
--------------------------------------------------------|

-9-9/11---9-9---7-7---9/11///12/17---16-17-16---16-17-16-|
---------------------------------------------------------|
---------------------------------------------------------|
---------------------------------------------------------|
---------------------------------------------------------|
---------------------------------------------------------|

-/21(10 times)-19/21/19-19-19/24-24-24---24--23--23/22~-|
--------------------------------------------------------|
--------------------------------------------------------|
--------------------------------------------------------|
--------------------------------------------------------|
--------------------------------------------------------|
Fade into Preying Mantis part
After the Preying Mantis part
--21~~~~~~~~~~~~~~~~~~~~~~~~~~~/23~~~~~~~~~~~~~~~~~~~~~~~~~~~~~~~~~~--|
----------------------------------------------------------------------|
----------------------------------------------------------------------|
----------------------------------------------------------------------|
----------------------------------------------------------------------|
----------------------------------------------------------------------|

--21~~~\15~~~~/17~~~~/15~~~~/17~~~~/23~~~~~~~~~~~~~~~~~~~~~~~~~~~~~~--|
----------------------------------------------------------------------|
----------------------------------------------------------------------|
----------------------------------------------------------------------|
----------------------------------------------------------------------|
----------------------------------------------------------------------|

--23~~~\21~~~\15~~~/17~~~~~~~~~~~~~~~~~~~~~~~~~~~~~~~~~~~~~~~~~-------|
----------------------------------------------------------------------|
----------------------------------------------------------------------|
----------------------------------------------------------------------|
----------------------------------------------------------------------|
----------------------------------------------------------------------|

--15~~~\13~~\12~~\8~~~/10~~~~~~~~~~~~~~~~~~~~~~~~~~~~-----------------|
----------------------------------------------------------------------|
----------------------------------------------------------------------|
----------------------------------------------------------------------|
----------------------------------------------------------------------|
----------------------------------------------------------------------|

--10~~/12~~/13~~~/17~~~~/23~~~~~~~~~~~~~~~~~~~~~~~~~~~~~~~~~----------|
----------------------------------------------------------------------|
----------------------------------------------------------------------|
----------------------------------------------------------------------|
----------------------------------------------------------------------|
----------------------------------------------------------------------|

--23~~~\21~~~\15~~~/17~~~---15~~~\13~~\(12)~\8~~~/10~~~~~~~~~~~~~~----|
----------------------------------------------------------------------|
----------------------------------------------------------------------|
----------------------------------------------------------------------|
----------------------------------------------------------------------|
----------------------------------------------------------------------|

--10~~~/23~~~/25~~\21~~/23~~~~\17~~~/18~~\17~~~~~~~-------------------|
----------------------------------------------------------------------|
----------------------------------------------------------------------|
----------------------------------------------------------------------|
----------------------------------------------------------------------|
----------------------------------------------------------------------|

--17~~~\15~~~\13~~\(12)~~~\8~~~/10~~~---10/23~~~~~~~~~~~~~~~~~~~~~----|
----------------------------------------------------------------------|
----------------------------------------------------------------------|
----------------------------------------------------------------------|
----------------------------------------------------------------------|
----------------------------------------------------------------------|

--23~~~/25~~\21~~/23~~\10~~~~~~~~~~~~~~~~~~~~~~~~---------------------|
----------------------------------------------------------------------|
----------------------------------------------------------------------|
----------------------------------------------------------------------|
----------------------------------------------------------------------|
----------------------------------------------------------------------|

--7~------------------------------------------------------------------|
--7~-----------15~-15\14~------15\14----------------------------------|
--8~--------15~---------------------14--------------------------------|
--9~--7/(15)------------14~-----------14\12-11------------------------|
--9~-------------------------------------------12~~~~-----------------|
--7~------------------------------------------------------------------|

----------------------------------14/16/17--14\12---------------------|
-------------------------13-13/15-------------------------------------|
--12/14~~----------12/14----------------------------------------------|
---------15\14/15~~---------------------------------------------------|
----------------------------------------------------------------------|
----------------------------------------------------------------------|

--8~~/10~~~\5~~~------------------------------------------------------|
----------------------------------------------------------------------|
-----------------9\10~~-9/10\9\7\5---3~~~~~---------------------------|
----------------------------------------------------------------------|
----------------------------------------------------------------------|
----------------------------------------------------------------------|
----------------------------------------------------------------------|

--------------15~~-15\13\8/10~~~\5~~--------5---5--5/(6)--------------|
-----------(15)-----------------------5\----5-/-5--5/(6)--------------|
--3~~--3/15~~---------------------------\-(5)/-(5)-5/(6)--------------|
-----------------------------------------\-1/-------------------------|
----------------------------------------------------------------------|
----------------------------------------------------------------------|

----------------------------------------------------------------------|
--15\14---------------------------------------------------------------|
-------14-------------------------------------------------------------|
---------14\12-11-----------------------------------------------------|
------------------12~~~-----------------------------------------------|
----------------------------------------------------------------------|

During last 8 minutes of song
e-|-------0-----0---|-------0-----0---|-------2-----2---|-------2-----2-----|
B-|-4---------------|-4---------------|-2-------3-------|-2-------3---------|
G-|-----6---6-----6-|-----6---6-----6-|-----4-----4---4-|-----4-----4---4---|
D-|---6-------6-----|---6-------6-----|---4-------------|---4---------------|
A-|-----------------|-----------------|-----------------|-------------------|
E-|-----------------|-----------------|-----------------|-------------------|

|-------0-----0---|-------0-----0---|-------2-----2----|-------2-----2-0----||
|-4---------------|-4-------6-------|-2-------3--------|-2-------3----------||
|-----6---6-----6-|-----6-----6---6-|-----4-----4---4--|-----4-----4-------*||
|---6-------6-----|---6-------------|---4--------------|---4---------------*||
|-----------------|-----------------|------------------|--------------------||
|-----------------|-----------------|------------------|--------------------||

|--------2------||
|--2-------3----||
|------4--------||
|----4----------||
|---------------||
|---------------||  Fade out slowly . . .
Добавлено: 12.03.2012
Другие материалы по этой песне:
  • Аккорды и текст

Страница создана 12.03.2012
http://primanota.ru/blizzard/echoes-chords.htm
Привет, Гость.
Предлагаем пройти революционный курс по гитаре.
Подарок от PrimaNota.Ru, забирай!