PrimaNota.ru - самый крупный в мире бесплатный архив песенных текстов, аккордов, табулатур и нот


Blink 182 - now i miss her so - таба, видео

Регистрация Запомнить меня
Войти через:  Facebook Google Twitter Vk Yandex Mail.ru

Blink 182 - now i miss her so - таба, видео

Печатать
Просмотров: 109
Уроки эстрадного вокала в Санкт-Петербурге


-------------------------------------------------------------------------------
			     (Now)I Miss Her So - Blink 182
-------------------------------------------------------------------------------
Tabbed by:Vash_Da_King
Email:none
AOL Instant Messanger:DarkMouisy

Tuning:Standard

(part left of slash, only play at opening of song)
Intro
e|--------------------/--------------------------------------------------------|
B|--------------------/--------------------------------------------------------|
G|-666--444--333---66-/--------------------------------------------------------|
D|-666--444--333---66-/--------------------------------------------------------|
A|-444--222--111---44-/----4-22----4-22---7-55---------------------------------|
E|--------------------/-00------00------5------2-xx-4-xx-----------------------|


Verse
e|---------------------------------------------------------------------------|
B|---------------------------------------------------------------------------|
G|--6------------------------------------------------------------------------|
D|--6-x16-10-10-10-10--88---11-11-10-10-10-10--88---11-11--------------------|
A|--4-----8--8--8--8---66---9--9--8--8--8--8---66---9--9---------------------|
E|---------------------------------------------------------------------------|

Chorus no guitar

Interlude
e|-----------------------------------------------------------------------------|
B|-----------------------------------------------------------------------------|
G|-----------------------------------------------------------------------------|
D|-----------------------------------------------------------------------------|
A|----4---4---4---4----4---4---4---4----11---11---11--11-----11---11---11---11-|
E|--6---6---6---6----2---2---2---2----9----9----9----9-----8----8----8----8----|


Interlude Prt.2
e|---------------------------------------------------------------------------|
B|---------------------------------------------------------------------------|
G|---------------------------------------------------------------------------|
D|--66--88--11-11-88-88-88---------------------------------------------------|
A|--44--66--9--9--66-66-66---------------------------------------------------|
E|---------------------------------------------------------------------------|


Outro
e|---------------------------------------------------------------------------|
B|-6-----5-------------------------------------------------------------------|
G|-6-x16-5-x16---------------------------------------------------------------|
D|-4-----3-------------------------------------------------------------------|
A|---------------------------------------------------------------------------|
E|---------------------------------------------------------------------------|



ORDER OF PREFORMANCE
-------------------
Intro(Lft of slash) x1
Intro(rgt of slash) x4
Verese              x1
Chorus              x0
Verse               x1
interlude           x5
InterludePrt.2      x1
Chorus              x0
Outro               x4



| /  slide up
|   slide down
| h  hammer-on
| p  pull-off
| ~  vibrato
| +  harmonic
| x  Mute note
===============================================================================


Добавлено: 29.09.2013
Другие материалы по этой песне:
  • Аккорды и текст

Страница создана 29.09.2013
http://primanota.ru/blink-182/now-i-miss-her-so-chords.htm
Привет, Гость.
Предлагаем пройти революционный курс по гитаре.
Подарок от PrimaNota.Ru, забирай!