PrimaNota.ru - самый крупный в мире бесплатный архив песенных текстов, аккордов, табулатур и нот


Blink 182 - Rock show live at the summer sonic 2003 - таба, видео

Регистрация Запомнить меня
Войти через:  Facebook Google Twitter Vk Yandex Mail.ru

Blink 182 - Rock show live at the summer sonic 2003 - таба, видео

Печатать
Просмотров: 112
Уроки эстрадного вокала в Санкт-Петербурге


Artist: Blink 182
Song: Rock Show (Live at S.S 2003)
Guitarist: Tom DeLonge

NOTE: Song can be heard from the website WWW.YOUTUBE.COM, just search for BLINK 182
LIVE IN TOKYO. Theres only one video, and thats it. Enjoy 

P.M = Palm Muted.
p= Pull Off.
h= Hammer On.
~= Let Ring.


Intro. (dist.)
e------------------------------------------------
B------------------------------------------------
G------------------------------------------------
D------2----0-------------2----0-----------------
A-0000---00---00-4p0-0000---00---00-4h7p4p0------
E----------------------------------------------x2

Pre-Verse: (dist.)
e------------------------------------------------
B------------------------------------------------
G------------------------------------------------
D--77777777777777-(Follows straight into Verse)--
A--77777777777777--------------------------------
E--55555555555555--------------------------------
P.M..............................................

Verse:  (dist.)
e------------------------------------------------
B------------------------------------------------
G-----------------7-777777777777-9-999999999999--
D--7-777777777777-7-777777777777-9-999999999999--
A--7-777777777777-5-555555555555-7-777777777777--
E--5-555555555555------------------------------x2
P.M  ............   ............   ............

Repeat Intro. x1
Repeat Verse. x2

Chorus: (dist.)
e------------------------------------------------
B------------------------------------------------
G---------------7-7------------9999999-7777777---
D-7-7-7-xx-4-xx-7-7------------9999999-7777777---
A-7-7-7-xx-4-xx-5-5------------7777777-5555555---
E-5-5-5-xx-2-xx-----(x3, then)---------------(x2)
P.M                            ....... .......
Chorus: (Cont.) (dist.)
e------------------------------------------------
B------------------------------------------------
G--9999999-9-7-----------------------------------
D--9999999-9-7-(Then straight into Intro. again)-
A--7777777-7-5-----------------------------------
E------------------------------------------------
P.M.......

Second Verse: (dist.)
e------------------------------------------------
B------------------------------------------------
G------------------------------------------------
D---77777777777777-7~~~~-------------------------
A---77777777777777-7~~~~(let ring through verse)-
E---55555555555555-5~~~~-------------------------
P.M ..............

Repeat Chorus.

Interlude: (There are two parts to this, and its a lot different to
the actual song. There is a gap between the Guitar Interlude and when
Mark starts singing again where Tom speaks to the crowd).

Inter. Pt.1 (dist.)
e------------------------------------------------
B--2---2---3-----2---2---3-----2---2---3--0-0----
G----2--2---2------2--2---2------2--2---2--------
D------------------------------------------------
A------------------------------------------------
E----------------------------------------------x2

Inter. Pt.2 (Clean.)
e------------------------------------------------
B--2---2---3-----2---2---3-----2---2---3--0-0----
G----2--2---2------2--2---2------2--2---2--------
D------------------------------------------------
A------------------------------------------------
E------------------------------------------------


Repeat Chorus.
Repeat Intro. to the end.


Enjoy 



Добавлено: 13.12.2013
Другие материалы по этой песне:
  • Аккорды и текст

Страница создана 13.12.2013
http://primanota.ru/blink-182/rock-show-live-at-the-summer-sonic-2003-chords.htm
Привет, Гость.
Предлагаем пройти революционный курс по гитаре.
Подарок от PrimaNota.Ru, забирай!