PrimaNota.ru - самый крупный в мире бесплатный архив песенных текстов, аккордов, табулатур и нот


Blink-182 - Unreleased Acoustic Riff - таба, видео

Регистрация Запомнить меня
Войти через:  Facebook Google Twitter Vk Yandex Mail.ru

Blink-182 - Unreleased Acoustic Riff - таба, видео

Печатать
Просмотров: 141
Уроки эстрадного вокала в Санкт-Петербурге
-------------------------------------------------------------------------------
                             Unreleased Riff - Blink-182
-------------------------------------------------------------------------------
Tabbed by: Axle2208
E-mail: axle2208@hotmail.com


I am tabbing this video: https://www.youtube.com/watch?v=UETTeUfV3lw


Intro:
e|---------------------------------------------------------------------------|
B|---------------------------------------------------------------------------|
G|---------------------------------------------------------------------------|
D|-------4-----0-0---(0)(0)(0)(0)(0)(0)--------------------------------------|
A|-2-2-2---2-2---------------------------------------------------------------|
E|---------------------------------------------------------------------------|
                    |----Palm Mute-----|

e|---------------------------------------------------------------------------|
B|---------------------------------------------------------------------------|
G|---------------------------------------------------------------------------|
D|-------4-----0-0---(0)(0)(0)(0)(0)(0)--------------------------------------|
A|-0-0-0---0-0---------------------------------------------------------------|
E|---------------------------------------------------------------------------|
                    |----Palm Mute-----|

e|---------------------------------------------------------------------------|
B|---------------------------------------------------------------------------|
G|---------------------------------------------------------------------------|
D|-------4-----0-0---(0)(0)(0)(0)(0)(0)--------------------------------------|
A|---------------------------------------------------------------------------|
E|-3-3-3---3-3---------------------------------------------------------------|
                    |----Palm Mute-----|

e|---------------------------------------------------------------------------|
B|---------------------------------------------------------------------------|
G|---------------------------------------------------------------------------|
D|-------2-----4-------------------------------------------------------------|
A|-0-0-0---0-0---------------------------------------------------------------|
E|---------------------------------------------------------------------------|


Verse 1:
e|---------------------------------------------------------------------------|
B|---------------------------------------------------------------------------|
G|---------------------------------------------------------------------------|
D|-------4-----0-0-------2-----4-4-------------------------------------------| x2
A|-2-2-2---2-2-----0-0-0---0-0-----------------------------------------------|
E|---------------------------------------------------------------------------|

e|---------------------------------------------------------------------------|
B|---------------------------------------------------------------------------|
G|---------------------------------------------------------------------------|
D|-------4-----0-0-------2-----4-4-------------------------------------------| x1
A|-----------------0-0-0---0-0-----------------------------------------------|
E|-3-3-3---3-3---------------------------------------------------------------|


Chorus 1:
e|---------------------------------------------------------------------------|
B|---------------------------------------------------------------------------|
G|---------------------------------------------------------------------------|
D|-------7-----4-------5---5---4-4-------------------------------------------| x1
A|-5-5-5---5-5---5-5-5---5---5-----------------------------------------------|
E|---------------------------------------------------------------------------|

e|---------------------------------------------------------------------------|
B|---------------------------------------------------------------------------|
G|---------------------------------------------------------------------------|
D|-------5-----0-------2---4---0-0-------------------------------------------| x1
A|-0-0-0---0-0---0-0-0---0---0-----------------------------------------------|
E|---------------------------------------------------------------------------|


Verse 2 (same as verse 1):
e|---------------------------------------------------------------------------|
B|---------------------------------------------------------------------------|
G|---------------------------------------------------------------------------|
D|-------4-----0-0-------2-----4-4-------------------------------------------| x2
A|-2-2-2---2-2-----0-0-0---0-0-----------------------------------------------|
E|---------------------------------------------------------------------------|

e|---------------------------------------------------------------------------|
B|---------------------------------------------------------------------------|
G|---------------------------------------------------------------------------|
D|-------4-----0-0-------2-----4-4-------------------------------------------| x1
A|-----------------0-0-0---0-0-----------------------------------------------|
E|-3-3-3---3-3---------------------------------------------------------------|


Chorus 2:
e|---------------------------------------------------------------------------|
B|---------------------------------------------------------------------------|
G|---------------------------------------------------------------------------|
D|-------7-----4-------5---5---4-4-------------------------------------------| x1
A|-5-5-5---5-5---5-5-5---5---5-----------------------------------------------|
E|---------------------------------------------------------------------------|

e|---------------------------------------------------------------------------|
B|---------------------------------------------------------------------------|
G|---------------------------------------------------------------------------|
D|-------5-----0-------7---5---4-4-------------------------------------------| x1
A|-0-0-0---0-0---0-0-0---0---0-----------------------------------------------|
E|---------------------------------------------------------------------------|


Verse 3:
e|---------------------------------------------------------------------------|
B|---------------------------------------------------------------------------|
G|---------------------------------------------------------------------------|
D|-----4---4---0-0-----2---2---4-4-------------------------------------------| x2
A|-2-2---2---2-----0-0---0---0-----------------------------------------------|
E|---------------------------------------------------------------------------|

e|---------------------------------------------------------------------------|
B|---------------------------------------------------------------------------|
G|---------------------------------------------------------------------------|
D|-----4---4---0-0-----2---2---4-4-------------------------------------------| x1
A|-----------------0-0---0---0-----------------------------------------------|
E|-3-3---3---3---------------------------------------------------------------|


Chorus 1:
e|---------------------------------------------------------------------------|
B|---------------------------------------------------------------------------|
G|---------------------------------------------------------------------------|
D|-------7-----4-------5---5---4-4-------------------------------------------| x1
A|-5-5-5---5-5---5-5-5---5---5-----------------------------------------------|
E|---------------------------------------------------------------------------|

e|---------------------------------------------------------------------------|
B|---------------------------------------------------------------------------|
G|---------------------------------------------------------------------------|
D|-------5-----0-------2---4---0-0-------------------------------------------| x1
A|-0-0-0---0-0---0-0-0---0---0-----------------------------------------------|
E|---------------------------------------------------------------------------|

Добавлено: 14.04.2016
Другие материалы по этой песне:
  • Аккорды и текст

Страница создана 14.04.2016
http://primanota.ru/blink-182-2/unreleased-acoustic-riff-chords.htm
Привет, Гость.
Предлагаем пройти революционный курс по гитаре.
Подарок от PrimaNota.Ru, забирай!