PrimaNota.ru - самый крупный в мире бесплатный архив песенных текстов, аккордов, табулатур и нот


Blink-182 - You Fucked Up My Life - таба, видео

Регистрация Запомнить меня
Войти через:  Facebook Google Twitter Vk Yandex Mail.ru

Blink-182 - You Fucked Up My Life - таба, видео

Печатать
Просмотров: 205
Уроки эстрадного вокала в Санкт-Петербурге
----------------------------------------------------------------------------
                     You F****d Up my Life - Blink 182
----------------------------------------------------------------------------
Album: Take Off Your Pants And Jacket (Yellow Version Bonus Track)

Tabbed by: bloogy182


Tuning:Standard (E,A,D,G)

Intro (x2)
e|---------------------------------------------|
B|---------------------------------------------|
G|-----------------------------77777777--------|
D|--77777777-77777777-44444444-77777777--------|
A|--77777777-77777777-44444444-55555555--------|
E|--55555555-55555555-22222222-----------------|

Verse (x2)
e|-------------------------------------------------------------------------|
B|-------------------------------------------------------------------------|
G|---------------------------------9-9999-99-99999-7-7777-77-77777---------|
D|-7-7777-77-77777-4-4444-44-44444-9-9999-99-99999-7-7777-77-77777---------|
A|-7-7777-77-77777-4-4444-44-44444-7-7777-77-77777-5-5555-55-55555---------|
E|-5-5555-55-55555-2-2222-22-22222-----------------------------------------|

Intro (x2)
e|---------------------------------------------|
B|---------------------------------------------|
G|-----------------------------77777777--------|
D|--77777777-77777777-44444444-77777777--------|
A|--77777777-77777777-44444444-55555555--------|
E|--55555555-55555555-22222222-----------------|

Verse (x2)
e|-------------------------------------------------------------------------|
B|-------------------------------------------------------------------------|
G|---------------------------------9-9999-99-99999-7-7777-77-77777---------|
D|-7-7777-77-77777-4-4444-44-44444-9-9999-99-99999-7-7777-77-77777---------|
A|-7-7777-77-77777-4-4444-44-44444-7-7777-77-77777-5-5555-55-55555---------|
E|-5-5555-55-55555-2-2222-22-22222-----------------------------------------|

Chorus (x2)
e|-------------------------------------------------------------------------|
B|-------------------------------------------------------------------------|
G|----------------------------------------------777-77-7-77777-------------|
D|-777-77-7-77777-666-66-6-66666-444-44-4-44444-777-77-7-77777-------------|
A|-777-77-7-77777-666-66-6-66666-444-44-4-44444-555-55-5-55555-------------|
E|-555-55-5-55555-444-44-4-44444-222-22-2-22222----------------------------|

Intro (x2)
e|---------------------------------------------|
B|---------------------------------------------|
G|-----------------------------77777777--------|
D|--77777777-77777777-44444444-77777777--------|
A|--77777777-77777777-44444444-55555555--------|
E|--55555555-55555555-22222222-----------------|

Verse (x2)
e|-------------------------------------------------------------------------|
B|-------------------------------------------------------------------------|
G|---------------------------------9-9999-99-99999-7-7777-77-77777---------|
D|-7-7777-77-77777-4-4444-44-44444-9-9999-99-99999-7-7777-77-77777---------|
A|-7-7777-77-77777-4-4444-44-44444-7-7777-77-77777-5-5555-55-55555---------|
E|-5-5555-55-55555-2-2222-22-22222-----------------------------------------|

Chorus (x2)
e|-------------------------------------------------------------------------|
B|-------------------------------------------------------------------------|
G|----------------------------------------------777-77-7-77777-------------|
D|-777-77-7-77777-666-66-6-66666-444-44-4-44444-777-77-7-77777-------------|
A|-777-77-7-77777-666-66-6-66666-444-44-4-44444-555-55-5-55555-------------|
E|-555-55-5-55555-444-44-4-44444-222-22-2-22222----------------------------|

Bridge 1 (x2)
e|---------------------------------------------------|
B|--------5----------2----------5-----------2--------|
G|-----2------2---2-----2----2-----2-----2-----2-----|
D|---------------------------------------------------|
A|--0-----------0----------0----------0--------------|
E|---------------------------------------------------|
then...
e|-----------------------------------------------------|
B|-------5-----------2-----------5-----------2---------|
G|----2-----2-----2-----2-----2-----2-----2-----2------|
D|-0-----------0-----------0-----------0---------------|
A|-----------------------------------------------------|
E|-----------------------------------------------------|

Bridge 2 (x1)
e|--------------------------------------------------------|
B|-------5-----------2-----------5-----------2------------|
G|----2-----2-----2-----2-----2-----2-----2-----2---------|
D|-------------------------0------------0-----------------|
A|-0-----------0------------------------------------------|
E|--------------------------------------------------------|
then...
e|---------------------------------------------------------|
B|-------2--------2--------2--22-22-22-2222----------------|
G|----2--------2--------2-----22-22-22-2222----------------|
D|-0--------0--------0--------00-00-00-0000----------------|
A|---------------------------------------------------------|
E|---------------------------------------------------------|

Bridge 3 (x1)
e|-----------------------------------------------------------------|
B|-----------------------------------------------------------------|
G|-----------------77-7777-7-77777---------------------------------|
D|-44-4444-4-44444-77-7777-7-77777-77-7777-7-77777-77-7777-7-77777-|
A|-44-4444-4-44444-55-5555-5-55555-77-7777-7-77777-77-7777-7-77777-|
E|-22-2222-2-22222-----------------55-5555-5-55555-55-5555-5-55555-|
then...
e|-----------------------------------|
B|-----------------------------------|
G|-----------------------------------|
D|-99-9999-9-99999-77-7777-7-77777---|
A|-99-9999-9-99999-77-7777-7-77777---|
E|-77-7777-7-77777-55-5555-5-55555---|

Outro (x8)
e|---------------------------------------------|
B|---------------------------------------------|
G|---------------------------77777777----------|
D|-77777777-7777777-44444444-77777777----------|
A|-77777777-7777777-44444444-55555555----------|
E|-55555555-5555555-22222222-------------------|

This song is sooooooooooooooooo  good. It's supposed to be played on acoustic giutar
but I guess you could play it on electric. Plz rate! Thnx!
Добавлено: 14.04.2016
Другие материалы по этой песне:
  • Аккорды и текст

Страница создана 14.04.2016
http://primanota.ru/blink-182-2/you-fucked-up-my-life-chords.htm
Привет, Гость.
Предлагаем пройти революционный курс по гитаре.
Подарок от PrimaNota.Ru, забирай!