PrimaNota.ru - самый крупный в мире бесплатный архив песенных текстов, аккордов, табулатур и нот


Blessthefall - Youngbloods - таба, видео

Регистрация Запомнить меня
Войти через:  Facebook Google Twitter Vk Yandex Mail.ru

Blessthefall - Youngbloods - таба, видео

Печатать
Просмотров: 205
D|---------------------------------------------------------------|
A|---------------------------------------------------------------|
F|---------------------------------------------------------------|
C|-0~--------------------------/---------------------------------|
G|-0~--------------------------/-Pick scrape---------------------|
C|-0~--------------------------/---------------------------------|



D|---------------------------------------------------------------|
A|---------------------------------------------------------------|
F|---------------------------------------------------------------|
C|---------------------------------------------------------------|
G|-5h8p5p0------------5h8p5p0---7h10p7p0---5---5h8p5p0-----------|
C|---------000-000-00---------0----------0---0-------------------|
           xxx xxx xx         x          x   x


D|---------------------------------------------------------------|
A|---------------------------------------------------------------|
F|---------------------------------------------------------------|
C|---------------------------------------------------------------|
G|-------------5-------7-----------------------------------------|
C|-000-000-000---8-5-7---10-7-8----------------------------------|
   xxx xxx xxx   x x x   x  x x


D|---------------------------------------------------------------|
A|---------------------------------------------------------------|
F|---------------------------------------------------------------|
C|--------------------------------------------------8/-----------|
G|-5h8p5p0------------5h8p5p0---7h10p7p0---8h12p8p0-8/-----------|
C|---------000-000-00---------0----------0----------8/-----------|
           xxx xxx xx         x          x


D|---------------------------------------------------------------|
A|---------------------------------------------------------------|
F|---------------------------------------------------------------|
C|-111-555-444-333-111-555-444-333-------------------------------|
G|-111-555-444-333-111-555-444-333-------------------------------|
C|-111-555-444-333-111-555-444-333-------------------------------|
   xxx xxx xxx xxx xxx xxx xxx xxx


D|---------------------------------------------------------------|
A|---------------------------------------------------------------|
F|---------------------------------------------------------------|
C|---------------------------------------------------------------|
G|-5h8p5p0------------5h8p5p0---7h10p7p0---5---5h8p5p0-----------|
C|---------000-000-00---------0----------0---0-------------------|
           xxx xxx xx         x          x   x


D|---------------------------------------------------------------|
A|---------------------------------------------------------------|
F|---------------------------------------------------------------|
C|---------------------------------------------------------------|
G|-------------5-------7-----------------------------------------|
C|-000-000-000---8-5-7---10-7-8----------------------------------|
   xxx xxx xxx   x x x   x  x x


D|---------------------------------------------------------------|
A|---------------------------------------------------------------|
F|---------------------------------------------------------------|
C|--------------------------------------------------8/-----------|
G|-5h8p5p0------------5h8p5p0---7h10p7p0---8h12p8p0-8/-----------|
C|---------000-000-00---------0----------0----------8/-----------|
           xxx xxx xx         x          x


D|---------------------------------------------------------------|
A|---------------------------------------------------------------|
F|---------------------------------------------------------------|
C|-111-555-444-333-----------------------------------------------|
G|-111-555-444-333-----------------------------------------------|
C|-111-555-444-333-----------------------------------------------|
   xxx xxx xxx xxx 


D|---------------------------------------------------------------|
A|---------------------------------------------------------------|
F|---------------------------------------------------------------|
C|---------------------------------------------------------------|
G|-8h12p8p0------------8h12p8p0---10h13p10p0---8---8h12p8p0------|
C|----------000-000-00----------0------------0---0---------------|
            xxx xxx xx          x            x   x


D|---------------------------------------------------------------|
A|---------------------------------------------------------------|
F|---------------------------------------------------------------|
C|---------------------------------------------------------------|
G|-------------8---------10--------------------------------------|
C|-000-000-000---12-8-10----14-10-12-----------------------------|
   xxx xxx xxx   x  x x     x  x  x


D|---------------------------------------------------------------|
A|---------------------------------------------------------------|
F|---------------------------------------------------------------|
C|--------------------------------------------------------8/-----|
G|-8h12p8p0------------8h12p8p0---10h13p10p0---12h15p12p0-8/-----|
C|----------000-000-00----------0------------0------------8/-----|
            xxx xxx xx          x            x


D|---------------------------------------------------------------|
A|---------------------------------------------------------------|
F|---------------------------------------------------------------|
C|-111-555-444-333-111-555-444-333-1-----------------------------|
G|-111-555-444-333-111-555-444-333-1-----------------------------|
C|-111-555-444-333-111-555-444-333-1-----------------------------|
   xxx xxx xxx xxx xxx xxx xxx xxx x


D|---------------------------------------------------------------|
A|---------------------------------------------------------------|
F|---------------------------------------------------------------|
C|-00---00-0-0-00000---00-0-0-00000---00-0-0-00000---------------|
G|-00---00-0-0-00000---00-0-0-00000---00-0-0-00000---------------|
C|-00---00-0-0-00000---00-0-0-00000---00-0-0-00000---------------|
   xx   xx x x xxxxx   xx x x xxxxx   xx x x xxxxx


D|---------------------------------------------------------------|
A|---------------------------------------------------------------|
F|-------------------------------------------------------------3*|
C|-00---00-0-0-00000---00-0-0-000-----00-0-0-00000-1-0-1-5-4-3---|
G|-00---00-0-0-00000---00-0-0-000-----00-0-0-00000-1-0-1-5-4-3---|
C|-00---00-0-0-00000---00-0-0-000-----00-0-0-00000-1-0-1-5-4-3---|
   xx   xx x x xxxxx   xx x x xxx     xx x x xxxxx       x x x


D|---------------------------------------------------------------|
A|---------------------------------------------------------------|
F|-14--------14---12---14---15--------12---17---15---14----------|
C|----000000----0----0----0----000000----0----0----0-------------|
G|---------------------------------------------------------------|
C|---------------------------------------------------------------|
      xxxxxx    x    x    x    xxxxxx    x    x    x


D|---------------------------------------------------------------|
A|---------------------------------------------------------------|
F|--------14---12---14---15---14---12---10---12---9h10p9p0-------|
C|-000000----0----0----0----0----0----0----0----0----------------|
G|---------------------------------------------------------------|
C|---------------------------------------------------------------|
   xxxxxx    x    x    x    x    x    x    x    x

D|---------------------------------------------------------------|
A|---------------------------------------------------------------|
F|-14--------14---12---14---15--------12---17---15---14----------|
C|----000000----0----0----0----000000----0----0----0-------------|
G|---------------------------------------------------------------|
C|---------------------------------------------------------------|
      xxxxxx    x    x    x    xxxxxx    x    x    x


D|---------------------------------------------------------------|
A|---------------------------------------------------------------|
F|--------14---12---14-------------3*-------------3*-------------|
C|-000000----0----0----1-0-1-5-4-3----1-0-1-5-4-3----0~----------|
G|---------------------1-0-1-5-4-3----1-0-1-5-4-3----0~----------|
C|---------------------1-0-1-5-4-3----1-0-1-5-4-3----0~----------|
   xxxxxx    x    x          x x x          x x x


D|---------------------------------------------------------------|
A|---------------------------------------------------------------|
F|---------------------------------------------------------------|
C|-/----------------12/------------------------------------------|
G|-/-Pick scrape----12/------------------------------------------|
C|-/----------------12/------------------------------------------|



D|---------------------------------------------------------------|
A|---------------------------------------------------------------|
F|---------------------------------------------------------------|
C|-777777----777777----777777----3333-8-7-3----------------------|
G|-555555-00-555555-00-555555-00-3333-8-7-3----------------------|
C|--------00--------00--------00-3333-8-7-3----------------------|
          xx        xx        xx      x x x


D|---------------------------------------------------------------|
A|---------------------------------------------------------------|
F|---------------------------------------------------------------|
C|-8-----3-------------------------------------------------------|
G|-8-x24-3-x8----------------------------------------------------|
C|-8-----3-------------------------------------------------------|


2x
D|---------------------------------------------------------------|
A|---------------------------------------------------------------|
F|-14-----12-----10---12---10---9h10p9---------------------------|
C|----0-0----0-0----0----0----0-------h10------------------------|
G|---------------------------------------------------------------|
C|---------------------------------------------------------------|
      x x    x x    x    x    x


D|---------------------------------------------------------------|
A|---------------------------------------------------------------|
F|-12-----10-----9---12-----10-----9-----------------------------|
C|----8-8----8-8---8----8-8----8-8---8---------------------------|
G|---------------------------------------------------------------|
C|---------------------------------------------------------------|
      x x    x x   x    x x    x x   x


D|---------------------------------------------------------------|
A|---------------------------------------------------------------|
F|-12-----10-----9---10---9---9h10p9-----------------------------|
C|----8-8----8-8---8----8---8-------h10--------------------------|
G|---------------------------------------------------------------|
C|---------------------------------------------------------------|
      x x    x x   x    x   x

2x
D|---------------------------------------------------------------|
A|---------------------------------------------------------------|
F|-14-----12-----10---12---10---9h10p9---------------------------|
C|----0-0----0-0----0----0----0-------h10------------------------|
G|---------------------------------------------------------------|
C|---------------------------------------------------------------|
      x x    x x    x    x    x


D|---------------------------------------------------------------|
A|---------------------------------------------------------------|
F|-12-----10-----9---12-----10-----9-----------------------------|
C|----8-8----8-8---8----8-8----8-8---8---------------------------|
G|---------------------------------------------------------------|
C|---------------------------------------------------------------|
      x x    x x   x    x x    x x   x


D|---------------------------------------------------------------|
A|---------------------------------------------------------------|
F|-12-----10-----9---10---------9-----9h10p9---------------------|
C|----8-8----8-8---8-----8---8-----8--------h10-0~---------------|
G|----------------------------------------------0~---------------|
C|----------------------------------------------0~---------------|
      x x    x x   x     x   x     x


D|---------------------------------------------------------------|
A|---------------------------------------------------------------|
F|---------------------------------------------------------------|
C|-5-4-1-0~------------------------------------------------------|
G|-5-4-1-0~---------------55-55-55-------------------------------|
C|-5-4-1-0~---------------88-88-88-------------------------------|
                          xx xx xx                  


D|---------------------------------------------------------------|
A|---------10-----6-------5------6-------8-----------------------|
F|-7-x24---7-x8---7-x24---7-x8---7-x32---7-x32-------------------|
C|---------------------------------------------------------------|
G|---------------------------------------------------------------|
C|---------------------------------------------------------------|



D|---------------------------------------------------------------|
A|---------------------------------------------------------------|
F|---------------------------------------------------------------|
C|---------------------------------------------------------------|
G|-5-5-5-5-5-5-5-5-8--8--8--8--8---------------------------------|
C|-8-8-8-8-8-8-8-8-11-11-11-11-11--------------------------------|
   x x x x x x x x x  x  x  x  x

3x Not 100% on the breakdown. I play it by feel.
D|---------------------------------------------------------------|
A|---------------------------------------------------------------|
F|---------------------------------------------------------------|
C|---------------------------------------------------------------|
G|---------------------------------------------------------------|
C|-0000-0000---0000-000000-0000-0000-----------------------------|
   xxxx xxxx   xxxx xxxxxx xxxx xxxx


D|---------------------------------------------------------------|
A|---------------------------------------------------------------|
F|---------------------------------------------------------------|
C|---------------------------------------------------------------|
G|---------------------------------------------------------------|
C|-00000000-0000---0000---000000-0000----------------------------|
   xxxxxxxx xxxx   xxxx   xxxxxx xxxx


D|---------------------------------------------------------------|
A|---------------------------------------------------------------|
F|---------------------------------------------------------------|
C|---------------------------------------------------------------|
G|---------------------------------------------------------------|
C|-0000-0000---0000-000000-0000-0000-----------------------------|
   xxxx xxxx   xxxx xxxxxx xxxx xxxx


D|---------------------------------------------------------------|
A|---------------------------------------------------------------|
F|-----------------------------3*----------3*--------------------|
C|-------------------------------0-1-5-4-3---0-------------------|
G|-------------------------------0-1-5-4-3---0-------------------|
C|-00000000-0000---0000---0000---0-1-5-4-3---0-------------------|
   xxxxxxxx xxxx   xxxx   xxxx       x x x
Добавлено: 08.09.2013
Другие материалы по этой песне:

Страница создана 08.09.2013
http://primanota.ru/blessthefall/youngbloods-chords.htm
Привет, Гость.
Предлагаем пройти революционный курс по гитаре.
Подарок от PrimaNota.Ru, забирай!