PrimaNota.ru - самый крупный в мире бесплатный архив песенных текстов, аккордов, табулатур и нот


Blessthefall - Up In Flames - таба, видео

Регистрация Запомнить меня
Войти через:  Facebook Google Twitter Vk Yandex Mail.ru

Blessthefall - Up In Flames - таба, видео

Печатать
Просмотров: 140
***PLEASE NOTE THE MODIFIED TUNING!!!***

Drop B 
(Modified 6th string to B instead of C#/Db for the lead part during the chorus):

***BF#BEG#B***

Parts Tabbed:
Guitar 1 (Eric)
Guitar 2 (Elliott)





Guitar 1 (Eric) 

B |-------|-------|----------------------------------------------------|-------|
G#|-------|-------|----------------------------------------------------|-------|
E |-------|-------|----------------------------------------------------|-------|
B |-------|-------|-----------3L-------3-----5L------------------------|--5----|
F#|-------|-------|--5L-------5--------5L----5L------------------------|--5----|
B |-------|-------|----------------------------------------------------|-------|


----------------------------------------------------|-------|
----------------------------------------------------|-------|
--------------------------2L------------------------|--2----|
-----------3L-------3L----3L------------------------|--3----|
--1L-------1--------1L----1L------------------------|--1----|
----------------------------------------------------|-------|


----------------------------------------------------|-------|
----------------------------------------------------|-------|
--------------------------3L------------------------|--3----|
-----------3L-------3L----3L------------------------|--3----|
----------------------------------------------------|-------|
--5L-------5--------5L----5L------------------------|--5----|


----------------------------------------------------|-------|
----------------------------------------------------|-------|
--------------------------2L------------------------|--2----|
-----------3L-------3L----3L------------------------|--3----|
--1L-------1--------1L----1L------------------------|--1----|
----------------------------------------------------|-------|


----------------------------------------------------|-------|
----------------------------------------------------|-------|
----------------------------------------------------|-------|
-----------3L-------3-----5L------------------------|--5----|
--5L-------5--------5L----5L------------------------|--5----|
----------------------------------------------------|-------|


----------------------------------------------------|-------|
----------------------------------------------------|-------|
--------------------------2L------------------------|--2----|
-----------3L-------3L----3L------------------------|--3----|
--1L-------1--------1L----1L------------------------|--1----|
----------------------------------------------------|-------|


----------------------------------------------------|-------|
----------------------------------------------------|-------|
--------------------------3L------------------------|--3----|
-----------3L-------3L----3L------------------------|--3----|
----------------------------------------------------|-------|
--5L-------5--------5L----5L------------------------|--5----|


----------------------------------------------------|-------|
----------------------------------------------------|-------|
--------------------------2L------------------------|--2----|
-----------3L-------3L----3L------------------------|--3----|
--1L-------1--------1L----1L------------------------|--1----|
----------------------------------------------------|-------|


----------------------------------------------------|
----------------------------------------------------|
----------------------------------------------------|
--------------------------10h12---------------------|
----------------------------------------------------|
--0-----0M-0-----0M-0-----------0M-0M-0-----0M-0L---|


----------------------------------------------------|
----------------------------------------------------|
----------------------------------------------------|
--------------10h12-------12h13----------------0----|
--------------------------------------12h13h12------|
--0--0M-0-----------0M-0M-------0M-0M---------------|


----------------------------------------------------|
----------------------------------------------------|
----------------------------------------------------|
--12----------------------12------------------------|
----------------------------------------------------|
--------0M-0-----0M-0--------0M-0M-0M-0-----0M-0L---|


----------------------------------------------------|
----------------------------------------------------|
----------------------------------------------------|
----------------------------------------------------|
----------------------------------------------------|
--0--0M-0--------0M-0M-0M-0-----0M-0-----0M-0-------|


--------------------------------------------------------------------------------
--------------------------------------------------------------------------------
--------------------------------------------------------------------------------
--0M----0M----0M----0M----------------0M----0M----0M----0M----------------10h---
--0M----0M----0M----0M----------------0M----0M----0M----0M----------------------
--0M----0M----0M----0M----------------0M----0M----0M----0M----------------------


--------------------------------------------------------------------|
--------------------------------------------------------------------|
--------------------------------------------------------------------|
---12---------------------------------------------------------------|
--------------------------------------------------------------------|
------------0M-------0M-------0-----------------0M-------0L---------|


----------------------------------------------------|
----------------------------------------------------|
----------------------------------------------------|
--------------10h12-------12h13----------------0----|
--------------------------------------12h13h12------|
--0--0M-0-----------0M-0M-------0M-0M---------------|


----------------------------------------------------|
----------------------------------------------------|
----------------------------------------------------|
--12----------------------12------------------------|
----------------------------------------------------|
--------0M-0-----0M-0--------0M-0M-0M-0-----0M-0L---|


----------------------------------------------------|
----------------------------------------------------|
----------------------------------------------------|
----------------------------------------------------|
----------------------------------------------------|
--0--0M-0--------0M-0M-0M-0M-0L----------------0----|


----------------------------------------------------|-------|
----------------------------------------------------|-------|
----------------------------------------------------|-------|
-----------3L-------3-----5L------------------------|--5----|
--5L-------5--------5L----5L------------------------|--5----|
----------------------------------------------------|-------|


----------------------------------------------------|-------|
----------------------------------------------------|-------|
--------------------------2L------------------------|--2----|
-----------3L-------3L----3L------------------------|--3----|
--1L-------1--------1L----1L------------------------|--1----|
----------------------------------------------------|-------|


----------------------------------------------------|-------|
----------------------------------------------------|-------|
--------------------------3L------------------------|--3----|
-----------3L-------3L----3L------------------------|--3----|
----------------------------------------------------|-------|
--5L-------5--------5L----5L------------------------|--5----|


----------------------------------------------------|-------|
----------------------------------------------------|-------|
--------------------------2L------------------------|--2----|
-----------3L-------3L----3L------------------------|--3----|
--1L-------1--------1L----1L------------------------|--1----|
----------------------------------------------------|-------|


--19-0--12-0--10h12-0--19-0--17-0--19s20-0--19-0----|
----------------------------------------------------|
----------------------------------------------------|
----------------------------------------------------|
----------------------------------------------------|
----------------------------------------------------|


--19-0--12-0--10-12-0--19-0--17-0--19s20-0--19-0----|
----------------------------------------------------|
----------------------------------------------------|
----------------------------------------------------|
----------------------------------------------------|
----------------------------------------------------|


--15-0--8--0--7h-8--0--15-0--14-0--15s17-0--15-0----|
----------------------------------------------------|
----------------------------------------------------|
----------------------------------------------------|
----------------------------------------------------|
----------------------------------------------------|


--15-0--8--0--7h-8--0--15-0--14-0--15s17-0--15-0----|
----------------------------------------------------|
----------------------------------------------------|
----------------------------------------------------|
----------------------------------------------------|
----------------------------------------------------|


--12-0--5--0--3h-5--0--12-0--10-0--12s14-0--12-0----|
----------------------------------------------------|
----------------------------------------------------|
----------------------------------------------------|
----------------------------------------------------|
----------------------------------------------------|


--12-0--5--0--3h-5--0--12-0--10-0--12s14-0--12-0----|
----------------------------------------------------|
----------------------------------------------------|
----------------------------------------------------|
----------------------------------------------------|
----------------------------------------------------|


--15-0--8--0--7h-8--0--15-0--14-0--15s17-0--15-0----|
----------------------------------------------------|
----------------------------------------------------|
----------------------------------------------------|
----------------------------------------------------|
----------------------------------------------------|


--15-0--8--0--7h-8--0--15-0--14-0--15s17-0--15-0----|
----------------------------------------------------|
----------------------------------------------------|
----------------------------------------------------|
----------------------------------------------------|
----------------------------------------------------|


----------------------------------------------------------------------------|
----------------------------------------------------------------------------|
----------------------------------------------------------------------------|
--0--------0M-------0M-0M-0M-0M-------3--------3--------3--------3----------|
--0--------0M-------0M-0M-0M-0M-------7--------7--------7b-------7b---------|
--0--------0M-------0M-0M-0M-0M---------------------------------------------|


--------------------------------------------------------------------------------
--------------------------------------------------------------------------------
--------------------------------------------------------------------------------
--3-----------------0M----------------0M----0M----0M----0M----------------10h---
--7b----------------0M----------------0M----0M----0M----0M----------------------
--------------------0M----------------0M----0M----0M----0M----------------------


--------------------------------------------------------------------|
--------------------------------------------------------------------|
--------------------------------------------------------------------|
---12----------------------------------------------------0----------|
------------------------------12h------13h------12------------------|
------------0M-------0M---------------------------------------------|


--------------------------------------------------------------------------------
--------------------------------------------------------------------------------
--------------------------------------------------------------------------------
--12----------------0M----------------0M----0M----0M----0M----------------3-----
--------------------0M----------------0M----0M----0M----0M----------------7b----
--------------------0M----------------0M----0M----0M----0M----------------------


--------------------------------------------------------------------|
--------------------------------------------------------------------|
--------------------------------------------------------------------|
------------3-------------------------------------------------------|
------------7b------------------------------------------------------|
------------------------------0M-------0M-------0L------------------|


----------------------------------------------------|
----------------------------------------------------|
----------------------------------------------------|
----------------------------------------------------|
----------------------------------------------------|
--0-----0M-0M-0-----------0M-0M-0-----0M-0M-0-------|


----------------------------------------------------------------------------|
----------------------------------------------------------------------------|
----------------------------------------------------------------------------|
--0--------0M-------0M-0M-0M-0M-------3--------3--------3--------3----------|
--0--------0M-------0M-0M-0M-0M-------7--------7--------7b-------7b---------|
--0--------0M-------0M-0M-0M-0M---------------------------------------------|


--------------------------------------------------------------------------------
--------------------------------------------------------------------------------
--------------------------------------------------------------------------------
--3-----------------0M----------------0M----0M----0M----0M----------------10h---
--7b----------------0M----------------0M----0M----0M----0M----------------------
--------------------0M----------------0M----0M----0M----0M----------------------


--------------------------------------------------------------------|
--------------------------------------------------------------------|
--------------------------------------------------------------------|
---12----------------------------------------------------0----------|
------------------------------12h------13h------12------------------|
------------0M-------0M---------------------------------------------|


--------------------------------------------------------------------------------
--------------------------------------------------------------------------------
--------------------------------------------------------------------------------
--12----------------0M----------------0M----0M----0M----0M----------------3-----
--------------------0M----------------0M----0M----0M----0M----------------7b----
--------------------0M----------------0M----0M----0M----0M----------------------


--------------------------------------------------------------------|
--------------------------------------------------------------------|
--------------------------------------------------------------------|
------------3-------------------------------------------------------|
------------7b------------------------------------------------------|
------------------------------0M-------0M-------0L------------------|


----------------------------------------------------|
----------------------------------------------------|
----------------------------------------------------|
----------------------------------------------------|
----------------------------------------------------|
--0-----0M-0M-0-----------0M-0M-0-----0M-0M-0-------|


----------------------------------------------------|-------|
----------------------------------------------------|-------|
----------------------------------------------------|-------|
-----------3L-------3-----5L------------------------|--5----|
--5L-------5--------5L----5L------------------------|--5----|
----------------------------------------------------|-------|


----------------------------------------------------|-------|
----------------------------------------------------|-------|
--------------------------2L------------------------|--2----|
-----------3L-------3L----3L------------------------|--3----|
--1L-------1--------1L----1L------------------------|--1----|
----------------------------------------------------|-------|


----------------------------------------------------|-------|
----------------------------------------------------|-------|
--------------------------3L------------------------|--3----|
-----------3L-------3L----3L------------------------|--3----|
----------------------------------------------------|-------|
--5L-------5--------5L----5L------------------------|--5----|


----------------------------------------------------|-------|
----------------------------------------------------|-------|
--------------------------2L------------------------|--2----|
-----------3L-------3L----3L------------------------|--3----|
--1L-------1--------1L----1L------------------------|--1----|
----------------------------------------------------|-------|


--19-0--12-0--10h12-0--19-0--17-0--19s20-0--19-0----|
----------------------------------------------------|
----------------------------------------------------|
----------------------------------------------------|
----------------------------------------------------|
----------------------------------------------------|


--19-0--12-0--10-12-0--19-0--17-0--19s20-0--19-0----|
----------------------------------------------------|
----------------------------------------------------|
----------------------------------------------------|
----------------------------------------------------|
----------------------------------------------------|


--15-0--8--0--7h-8--0--15-0--14-0--15s17-0--15-0----|
----------------------------------------------------|
----------------------------------------------------|
----------------------------------------------------|
----------------------------------------------------|
----------------------------------------------------|


--15-0--8--0--7h-8--0--15-0--14-0--15s17-0--15-0----|
----------------------------------------------------|
----------------------------------------------------|
----------------------------------------------------|
----------------------------------------------------|
----------------------------------------------------|


--12-0--5--0--3h-5--0--12-0--10-0--12s14-0--12-0----|
----------------------------------------------------|
----------------------------------------------------|
----------------------------------------------------|
----------------------------------------------------|
----------------------------------------------------|


--12-0--5--0--3h-5--0--12-0--10-0--12s14-0--12-0----|
----------------------------------------------------|
----------------------------------------------------|
----------------------------------------------------|
----------------------------------------------------|
----------------------------------------------------|


--15-0--8--0--7h-8--0--15-0--14-0--15s17-0--15-0----|
----------------------------------------------------|
----------------------------------------------------|
----------------------------------------------------|
----------------------------------------------------|
----------------------------------------------------|


--15-0--8--0--7h-8--0--15-0--14-0--15s17-0--15-0----|
----------------------------------------------------|
----------------------------------------------------|
----------------------------------------------------|
----------------------------------------------------|
----------------------------------------------------|


--19-0--12-0--10h12-0--19-0--17-0--19s20-0--19-0----|
----------------------------------------------------|
----------------------------------------------------|
----------------------------------------------------|
----------------------------------------------------|
----------------------------------------------------|


--19-0--12-0--10-12-0--19-0--17-0--19s20-0--19-0----|
----------------------------------------------------|
----------------------------------------------------|
----------------------------------------------------|
----------------------------------------------------|
----------------------------------------------------|


--15-0--8--0--7h-8--0--15-0--14-0--15s17-0--15-0----|
----------------------------------------------------|
----------------------------------------------------|
----------------------------------------------------|
----------------------------------------------------|
----------------------------------------------------|


--15-0--8--0--7h-8--0--15-0--14-0--15s17-0--15-0----|
----------------------------------------------------|
----------------------------------------------------|
----------------------------------------------------|
----------------------------------------------------|
----------------------------------------------------|


--12-0--5--0--3h-5--0--12-0--10-0--12s14-0--12-0----|
----------------------------------------------------|
----------------------------------------------------|
----------------------------------------------------|
----------------------------------------------------|
----------------------------------------------------|


--12-0--5--0--3h-5--0--12-0--10-0--12s14-0--12-0----|
----------------------------------------------------|
----------------------------------------------------|
----------------------------------------------------|
----------------------------------------------------|
----------------------------------------------------|


--15-0--8--0--7h-8--0--15-0--14-0--15s17-0--15-0----|
----------------------------------------------------|
----------------------------------------------------|
----------------------------------------------------|
----------------------------------------------------|
----------------------------------------------------|


--15-0--8--0--7h-8--0--15-0--14-0--15s17-0--15-0----|
----------------------------------------------------|
----------------------------------------------------|
----------------------------------------------------|
----------------------------------------------------|
----------------------------------------------------|


----------------------------|----------------------------|
--10-10-10-10-10-10-10-10---|--10-10-10-10-10-10-10-10---|
--13b13b13b13b13b13b13b13b--|--13b13b13b13b13b13b13b13b--|
----------------------------|----------------------------|
----------------------------|----------------------------|
----------------------------|----------------------------|


----------------------------|----------------------------|
--11-11-11-11-11-11-11-11---|--11-11-11-11-11-11-11-11---|
--14b14b14b14b14b14b14b14b--|--14b14b14b14b14b14b14b14b--|
----------------------------|----------------------------|
----------------------------|----------------------------|
----------------------------|----------------------------|


----------------------------|----------------------------|
--10-10-10-10-10-10-10-10---|--10-10-10-10-10-10-10-10---|
--13b13b13b13b13b13b13b13b--|--13b13b13b13b13b13b13b13b--|
----------------------------|----------------------------|
----------------------------|----------------------------|
----------------------------|----------------------------|


----------------------------|----------------------------|
-----10L10-10L10-10L10-10L--|--10-10L10-10L10-10L10-10---|
--12L12-12L12-12L12-12L12---|--12L12-12L12-12L12-12L12---|
----------------------------|----------------------------|
----------------------------|----------------------------|
----------------------------|----------------------------|


----------------------------|----------------------------|
--10-10-10-10-10-10-10-10---|--10-10-10-10-10-10-10-10---|
--13b13b13b13b13b13b13b13b--|--13b13b13b13b13b13b13b13b--|
----------------------------|----------------------------|
----------------------------|----------------------------|
----------------------------|----------------------------|


----------------------------|----------------------------|
--11-11-11-11-11-11-11-11---|--11-11-11-11-11-11-11-11---|
--14b14b14b14b14b14b14b14b--|--14b14b14b14b14b14b14b14b--|
----------------------------|----------------------------|
----------------------------|----------------------------|
----------------------------|----------------------------|


----------------------------|----------------------------|
--10-10-10-10-10-10-10-10---|--10-10-10-10-10-10-10-10---|
--13b13b13b13b13b13b13b13b--|--13b13b13b13b13b13b13b13b--|
----------------------------|----------------------------|
----------------------------|----------------------------|
----------------------------|----------------------------|


----------------------------|----------------------------|-------|-------|
-----10L10-10L10-10L10-10L--|--10-10L10-10L10-10L10-10---|-------|-------|
--12L12-12L12-12L12-12L12---|--12L12-12L12-12L12-12L12---|-------|-------|
----------------------------|----------------------------|-------|-------|
----------------------------|----------------------------|-------|-------|
----------------------------|----------------------------|-------|-------|


--15-0--8--0--7h-8--0--15-0--14-0--15s17-0--15-0----|
----------------------------------------------------|
----------------------------------------------------|
----------------------------------------------------|
----------------------------------------------------|
----------------------------------------------------|


--15-0--8--0--7h-8--0--15-0--14-0--15s17-0--15-0----|
----------------------------------------------------|
----------------------------------------------------|
----------------------------------------------------|
----------------------------------------------------|
----------------------------------------------------|


--12-0--5--0--3h-5--0--12-0--10-0--12s14-0--12-0----|
----------------------------------------------------|
----------------------------------------------------|
----------------------------------------------------|
----------------------------------------------------|
----------------------------------------------------|


--12-0--5--0--3h-5--0--12-0--10-0--12s14-0--12-0----|
----------------------------------------------------|
----------------------------------------------------|
----------------------------------------------------|
----------------------------------------------------|
----------------------------------------------------|


--15-0--8--0--7h-8--0--15-0--14-0--15s17-0--15-0----|
----------------------------------------------------|
----------------------------------------------------|
----------------------------------------------------|
----------------------------------------------------|
----------------------------------------------------|


--15-0--8--0--7h-8--0--15-0--14-0--15s17-0--15-0----|
----------------------------------------------------|
----------------------------------------------------|
----------------------------------------------------|
----------------------------------------------------|
----------------------------------------------------|


--19-0--12-0--10h12-0--19-0--17-0--19s20-0--19-0----|
----------------------------------------------------|
----------------------------------------------------|
----------------------------------------------------|
----------------------------------------------------|
----------------------------------------------------|


--19-0--12-0--10-12-0--19-0--17-0--19s20-0--19-0----|
----------------------------------------------------|
----------------------------------------------------|
----------------------------------------------------|
----------------------------------------------------|
----------------------------------------------------|


--15-0--8--0--7h-8--0--15-0--14-0--15s17-0--15-0----|
----------------------------------------------------|
----------------------------------------------------|
----------------------------------------------------|
----------------------------------------------------|
----------------------------------------------------|


--15-0--8--0--7h-8--0--15-0--14-0--15s17-0--15-0----|
----------------------------------------------------|
----------------------------------------------------|
----------------------------------------------------|
----------------------------------------------------|
----------------------------------------------------|


--12-0--5--0--3h-5--0--12-0--10-0--12s14-0--12-0----|
----------------------------------------------------|
----------------------------------------------------|
----------------------------------------------------|
----------------------------------------------------|
----------------------------------------------------|


--12-0--5--0--3h-5--0--12-0--10-0--12s14-0--12-0----|
----------------------------------------------------|
----------------------------------------------------|
----------------------------------------------------|
----------------------------------------------------|
----------------------------------------------------|


--15-0--8--0--7h-8--0--15-0--14-0--15s17-0--15-0----|
----------------------------------------------------|
----------------------------------------------------|
----------------------------------------------------|
----------------------------------------------------|
----------------------------------------------------|


--15-0--8--0--7h-8--0--15-0--14-0--15s17-0--15-0----|
----------------------------------------------------|
----------------------------------------------------|
----------------------------------------------------|
----------------------------------------------------|
----------------------------------------------------|


----------------------------|----------------------------|
--10-10-10-10-10-10-10-10---|--10-10-10-10-10-10-10-10---|
--13b13b13b13b13b13b13b13b--|--13b13b13b13b13b13b13b13b--|
----------------------------|----------------------------|
----------------------------|----------------------------|
----------------------------|----------------------------|


----------------------------|----------------------------|
--11-11-11-11-11-11-11-11---|--11-11-11-11-11-11-11-11---|
--14b14b14b14b14b14b14b14b--|--14b14b14b14b14b14b14b14b--|
----------------------------|----------------------------|
----------------------------|----------------------------|
----------------------------|----------------------------|


----------------------------|----------------------------|
--10-10-10-10-10-10-10-10---|--10-10-10-10-10-10-10-10---|
--13b13b13b13b13b13b13b13b--|--13b13b13b13b13b13b13b13b--|
----------------------------|----------------------------|
----------------------------|----------------------------|
----------------------------|----------------------------|


----------------------------|----------------------------|----||
-----10L10-10L10-10L10-10L--|--10-10L10-10L10-10L10-10---|----||
--12L12-12L12-12L12-12L12---|--12L12-12L12-12L12-12L12---|----||
----------------------------|----------------------------|----||
----------------------------|----------------------------|----||
----------------------------|----------------------------|----||







Guitar 2 (Elliott)





B |-------|-------|-------|-------|-------|-------|-------|-------|-------|
G#|-------|-------|-------|-------|-------|-------|-------|-------|-------|
E |-------|-------|-------|-------|-------|-------|-------|-------|-------|
B |-------|-------|-------|-------|-------|-------|-------|-------|-------|
F#|-------|-------|-------|-------|-------|-------|-------|-------|-------|
B |-------|-------|-------|-------|-------|-------|-------|-------|-------|


-------|-------|-------|-------|-------|-------|-------|-------|-------|
-------|--6----|--6----|--8----|--8----|--6----|--6----|--8----|--8----|
-------|--7----|--7----|--7----|--7----|--7----|--7----|--7----|--7----|
-------|--5----|--5----|--5----|--5----|--5----|--5----|--5----|--5----|
-------|-------|-------|-------|-------|-------|-------|-------|-------|
-------|-------|-------|-------|-------|-------|-------|-------|-------|


----------------------------------------------------|
----------------------------------------------------|
----------------------------------------------------|
--------------------------10h12---------------------|
----------------------------------------------------|
--0-----0M-0-----0M-0-----------0M-0M-0-----0M-0L---|


----------------------------------------------------|
----------------------------------------------------|
----------------------------------------------------|
--------------10h12-------12h13----------------0----|
--------------------------------------12h13h12------|
--0--0M-0-----------0M-0M-------0M-0M---------------|


----------------------------------------------------|
----------------------------------------------------|
----------------------------------------------------|
--12----------------------12------------------------|
----------------------------------------------------|
--------0M-0-----0M-0--------0M-0M-0M-0-----0M-0L---|


----------------------------------------------------|
----------------------------------------------------|
----------------------------------------------------|
----------------------------------------------------|
----------------------------------------------------|
--0--0M-0--------0M-0M-0M-0-----0M-0-----0M-0-------|


--------------------------------------------------------------------------------
--------------------------------------------------------------------------------
--------------------------------------------------------------------------------
--0M----0M----0M----0M----------------0M----0M----0M----0M----------------10h---
--0M----0M----0M----0M----------------0M----0M----0M----0M----------------------
--0M----0M----0M----0M----------------0M----0M----0M----0M----------------------


--------------------------------------------------------------------|
--------------------------------------------------------------------|
--------------------------------------------------------------------|
---12---------------------------------------------------------------|
--------------------------------------------------------------------|
------------0M-------0M-------0-----------------0M-------0L---------|


----------------------------------------------------|
----------------------------------------------------|
----------------------------------------------------|
--------------10h12-------12h13----------------0----|
--------------------------------------12h13h12------|
--0--0M-0-----------0M-0M-------0M-0M---------------|


----------------------------------------------------|
----------------------------------------------------|
----------------------------------------------------|
--12----------------------12------------------------|
----------------------------------------------------|
--------0M-0-----0M-0--------0M-0M-0M-0-----0M-0L---|


----------------------------------------------------|-------|-------|-------|
----------------------------------------------------|--6----|--6----|--8----|
----------------------------------------------------|--7----|--7----|--7----|
----------------------------------------------------|--5----|--5----|--5----|
----------------------------------------------------|-------|-------|-------|
--0--0M-0--------0M-0M-0M-0M-0L----------------0----|-------|-------|-------|


-------|-------|-------|-------|-------|
--8----|--6----|--6----|--8----|--8----|
--7----|--7----|--7----|--7----|--7----|
--5----|--5----|--5----|--5----|--5----|
-------|-------|-------|-------|-------|
-------|-------|-------|-------|-------|


----------------------------------------------------|
----------------------------------------------------|
--7--7--7--7--7--7--7--7--7--7--7--7--7--7--7--7----|
--7--7--7--7--7--7--7--7--7--7--7--7--7--7--7--7----|
--5--5--5--5--5--5--5--5--5--5--5--5--5--5--5--5----|
----------------------------------------------------|


----------------------------------------------------|
----------------------------------------------------|
--7--7--7--7--7--7--7--7--5--------5--------5-------|
--7--7--7--7--7--7--7--7--5--------5--------5-------|
--5--5--5--5--5--5--5--5--3--------3--------3-------|
----------------------------------------------------|


----------------------------------------------------|
----------------------------------------------------|
--3--3--3--3--3--3--3--3--3--3--3--3--3--3--3--3----|
--3--3--3--3--3--3--3--3--3--3--3--3--3--3--3--3----|
--1--1--1--1--1--1--1--1--1--1--1--1--1--1--1--1----|
----------------------------------------------------|


----------------------------------------------------|
----------------------------------------------------|
--3--3--3--3--3--3--3--3--3-----3-----3-----3-------|
--3--3--3--3--3--3--3--3--3-----3-----3-----3-------|
--1--1--1--1--1--1--1--1--1-----1-----1-----1-------|
----------------------------------------------------|


----------------------------------------------------|
----------------------------------------------------|
----------------------------------------------------|
--5--5--5--5--5--5--5--5--5--5--5--5--5--5--5--5----|
--5--5--5--5--5--5--5--5--5--5--5--5--5--5--5--5----|
--5--5--5--5--5--5--5--5--5--5--5--5--5--5--5--5----|


----------------------------------------------------|
----------------------------------------------------|
----------------------------------------------------|
--5--5--5--5--5--5--5--5--7--------7--------7-------|
--5--5--5--5--5--5--5--5--7--------7--------7-------|
--5--5--5--5--5--5--5--5--7--------7--------7-------|


----------------------------------------------------|
----------------------------------------------------|
----------------------------------------------------|
--8--8--8--8--8--8--8--8--8--8--8--8--8--8--8--8----|
--8--8--8--8--8--8--8--8--8--8--8--8--8--8--8--8----|
--8--8--8--8--8--8--8--8--8--8--8--8--8--8--8--8----|


----------------------------------------------------|
----------------------------------------------------|
--5--5--5--5--5--5--5--5--5--5--5--5--5--5--5--5----|
--5--5--5--5--5--5--5--5--5--5--5--5--5--5--5--5----|
--3--3--3--3--3--3--3--3--3--3--3--3--3--3--3--3----|
----------------------------------------------------|


----------------------------------------------------------------------------|
----------------------------------------------------------------------------|
----------------------------------------------------------------------------|
--0--------0M-------0M-0M-0M-0M-------3--------3--------3--------3----------|
--0--------0M-------0M-0M-0M-0M-------7--------7--------7b-------7b---------|
--0--------0M-------0M-0M-0M-0M---------------------------------------------|


--------------------------------------------------------------------------------
--------------------------------------------------------------------------------
--------------------------------------------------------------------------------
--3-----------------0M----------------0M----0M----0M----0M----------------10h---
--7b----------------0M----------------0M----0M----0M----0M----------------------
--------------------0M----------------0M----0M----0M----0M----------------------


--------------------------------------------------------------------|
--------------------------------------------------------------------|
--------------------------------------------------------------------|
---12----------------------------------------------------0----------|
------------------------------12h------13h------12------------------|
------------0M-------0M---------------------------------------------|


--------------------------------------------------------------------------------
--------------------------------------------------------------------------------
--------------------------------------------------------------------------------
--12----------------0M----------------0M----0M----0M----0M----------------3-----
--------------------0M----------------0M----0M----0M----0M----------------7b----
--------------------0M----------------0M----0M----0M----0M----------------------


--------------------------------------------------------------------|
--------------------------------------------------------------------|
--------------------------------------------------------------------|
------------3-------------------------------------------------------|
------------7b------------------------------------------------------|
------------------------------0M-------0M-------0L------------------|


----------------------------------------------------|
----------------------------------------------------|
----------------------------------------------------|
----------------------------------------------------|
----------------------------------------------------|
--0-----0M-0M-0-----------0M-0M-0-----0M-0M-0-------|


----------------------------------------------------------------------------|
----------------------------------------------------------------------------|
----------------------------------------------------------------------------|
--0--------0M-------0M-0M-0M-0M-------3--------3--------3--------3----------|
--0--------0M-------0M-0M-0M-0M-------7--------7--------7b-------7b---------|
--0--------0M-------0M-0M-0M-0M---------------------------------------------|


--------------------------------------------------------------------------------
--------------------------------------------------------------------------------
--------------------------------------------------------------------------------
--3-----------------0M----------------0M----0M----0M----0M----------------10h---
--7b----------------0M----------------0M----0M----0M----0M----------------------
--------------------0M----------------0M----0M----0M----0M----------------------


--------------------------------------------------------------------|
--------------------------------------------------------------------|
--------------------------------------------------------------------|
---12----------------------------------------------------0----------|
------------------------------12h------13h------12------------------|
------------0M-------0M---------------------------------------------|


--------------------------------------------------------------------------------
--------------------------------------------------------------------------------
--------------------------------------------------------------------------------
--12----------------0M----------------0M----0M----0M----0M----------------3-----
--------------------0M----------------0M----0M----0M----0M----------------7b----
--------------------0M----------------0M----0M----0M----0M----------------------


--------------------------------------------------------------------|
--------------------------------------------------------------------|
--------------------------------------------------------------------|
------------3-------------------------------------------------------|
------------7b------------------------------------------------------|
------------------------------0M-------0M-------0L------------------|


----------------------------------------------------|-------|-------|-------|
----------------------------------------------------|--6----|--6----|--8----|
----------------------------------------------------|--7----|--7----|--7----|
----------------------------------------------------|--5----|--5----|--5----|
----------------------------------------------------|-------|-------|-------|
--0-----0M-0M-0-----------0M-0M-0-----0M-0M-0-------|-------|-------|-------|


-------|-------|-------|-------|-------|
--8----|--6----|--6----|--8----|--8----|
--7----|--7----|--7----|--7----|--7----|
--5----|--5----|--5----|--5----|--5----|
-------|-------|-------|-------|-------|
-------|-------|-------|-------|-------|


----------------------------------------------------|
----------------------------------------------------|
--7--7--7--7--7--7--7--7--7--7--7--7--7--7--7--7----|
--7--7--7--7--7--7--7--7--7--7--7--7--7--7--7--7----|
--5--5--5--5--5--5--5--5--5--5--5--5--5--5--5--5----|
----------------------------------------------------|


----------------------------------------------------|
----------------------------------------------------|
--7--7--7--7--7--7--7--7--5--------5--------5-------|
--7--7--7--7--7--7--7--7--5--------5--------5-------|
--5--5--5--5--5--5--5--5--3--------3--------3-------|
----------------------------------------------------|


----------------------------------------------------|
----------------------------------------------------|
--3--3--3--3--3--3--3--3--3--3--3--3--3--3--3--3----|
--3--3--3--3--3--3--3--3--3--3--3--3--3--3--3--3----|
--1--1--1--1--1--1--1--1--1--1--1--1--1--1--1--1----|
----------------------------------------------------|


----------------------------------------------------|
----------------------------------------------------|
--3--3--3--3--3--3--3--3--3-----3-----3-----3-------|
--3--3--3--3--3--3--3--3--3-----3-----3-----3-------|
--1--1--1--1--1--1--1--1--1-----1-----1-----1-------|
----------------------------------------------------|


----------------------------------------------------|
----------------------------------------------------|
----------------------------------------------------|
--5--5--5--5--5--5--5--5--5--5--5--5--5--5--5--5----|
--5--5--5--5--5--5--5--5--5--5--5--5--5--5--5--5----|
--5--5--5--5--5--5--5--5--5--5--5--5--5--5--5--5----|


----------------------------------------------------|
----------------------------------------------------|
----------------------------------------------------|
--5--5--5--5--5--5--5--5--7--------7--------7-------|
--5--5--5--5--5--5--5--5--7--------7--------7-------|
--5--5--5--5--5--5--5--5--7--------7--------7-------|


----------------------------------------------------|
----------------------------------------------------|
----------------------------------------------------|
--8--8--8--8--8--8--8--8--8--8--8--8--8--8--8--8----|
--8--8--8--8--8--8--8--8--8--8--8--8--8--8--8--8----|
--8--8--8--8--8--8--8--8--8--8--8--8--8--8--8--8----|


----------------------------------------------------|
----------------------------------------------------|
--5--5--5--5--5--5--5--5--5--5--5--5--5--5--5--5----|
--5--5--5--5--5--5--5--5--5--5--5--5--5--5--5--5----|
--3--3--3--3--3--3--3--3--3--3--3--3--3--3--3--3----|
----------------------------------------------------|


----------------------------------------------------|
----------------------------------------------------|
--7--7--7--7--7--7--7--7--7--7--7--7--7--7--7--7----|
--7--7--7--7--7--7--7--7--7--7--7--7--7--7--7--7----|
--5--5--5--5--5--5--5--5--5--5--5--5--5--5--5--5----|
----------------------------------------------------|


----------------------------------------------------|
----------------------------------------------------|
--7--7--7--7--7--7--7--7--5--------5--------5-------|
--7--7--7--7--7--7--7--7--5--------5--------5-------|
--5--5--5--5--5--5--5--5--3--------3--------3-------|
----------------------------------------------------|


----------------------------------------------------|
----------------------------------------------------|
--3--3--3--3--3--3--3--3--3--3--3--3--3--3--3--3----|
--3--3--3--3--3--3--3--3--3--3--3--3--3--3--3--3----|
--1--1--1--1--1--1--1--1--1--1--1--1--1--1--1--1----|
----------------------------------------------------|


----------------------------------------------------|
----------------------------------------------------|
--3--3--3--3--3--3--3--3--3-----3-----3-----3-------|
--3--3--3--3--3--3--3--3--3-----3-----3-----3-------|
--1--1--1--1--1--1--1--1--1-----1-----1-----1-------|
----------------------------------------------------|


----------------------------------------------------|
----------------------------------------------------|
----------------------------------------------------|
--5--5--5--5--5--5--5--5--5--5--5--5--5--5--5--5----|
--5--5--5--5--5--5--5--5--5--5--5--5--5--5--5--5----|
--5--5--5--5--5--5--5--5--5--5--5--5--5--5--5--5----|


----------------------------------------------------|
----------------------------------------------------|
----------------------------------------------------|
--5--5--5--5--5--5--5--5--7--------7--------7-------|
--5--5--5--5--5--5--5--5--7--------7--------7-------|
--5--5--5--5--5--5--5--5--7--------7--------7-------|


----------------------------------------------------|
----------------------------------------------------|
----------------------------------------------------|
--8--8--8--8--8--8--8--8--8--8--8--8--8--8--8--8----|
--8--8--8--8--8--8--8--8--8--8--8--8--8--8--8--8----|
--8--8--8--8--8--8--8--8--8--8--8--8--8--8--8--8----|


----------------------------------------------------|
----------------------------------------------------|
--5--5--5--5--5--5--5--5--5--5--5--5--5--5--5--5----|
--5--5--5--5--5--5--5--5--5--5--5--5--5--5--5--5----|
--3--3--3--3--3--3--3--3--3--3--3--3--3--3--3--3----|
----------------------------------------------------|


----------------------------|
----------------------------|
----------------------------|
--0L----------0M-0M----0L---|
--0L----------0M-0M----0L---|
--0L----------0M-0M----0L---|


----------------------------------------------------|
----------------------------------------------------|
----------------------------------------------------|
--0M----0M-0M-0M-0M-------0M-------0M-------0L------|
--0M----0M-0M-0M-0M-------0M-------0M-------0L------|
--0M----0M-0M-0M-0M-------0M-------0M-------0L------|


----------------------------------------------------|
----------------------------------------------------|
----------------------------------------------------|
--0M----0M-0M-0M-0M---------------------------------|
--0M----0M-0M-0M-0M---------------------------------|
--0M----0M-0M-0M-0M-------0-----0M-0-----0M-0L------|


----------------------------|----------------------------|
----------------------------|----------------------------|
-----7--7--10-10-9--9--5----|----------------------------|
-----x--x--x--x--x--x--x----|--8--8--8--8--8--8--8--8----|
-----5--5--8--8--7--7--3----|--8--8--8--8--8--8--8--8----|
--0-------------------------|--8--8--8--8--8--8--8--8----|


----------------------------|----------------------------|
----------------------------|----------------------------|
----------------------------|----------------------------|
--8--8--8--8--8--8--8--8----|--5--5--5--5--5--5--5--5----|
--8--8--8--8--8--8--8--8----|--5--5--5--5--5--5--5--5----|
--8--8--8--8--8--8--8--8----|--5--5--5--5--5--5--5--5----|


----------------------------------------------------------------------------|
----------------------------------------------------------------------------|
----------------------------------------------------------------------------|
--5--------5M-------5M-5M-5M-5M-------5--------5--------5--------5----------|
--5--------5M-------5M-5M-5M-5M-------5--------5--------5--------5----------|
--5--------5M-------5M-5M-5M-5M-------5--------5--------5--------5----------|


----------------------------|
----------------------------|
----------------------------|
--0L----------0M-0M----0L---|
--0L----------0M-0M----0L---|
--0L----------0M-0M----0L---|


----------------------------------------------------|
----------------------------------------------------|
----------------------------------------------------|
--0M----0M-0M-0M-0M-------0M-------0M-------0L------|
--0M----0M-0M-0M-0M-------0M-------0M-------0L------|
--0M----0M-0M-0M-0M-------0M-------0M-------0L------|


----------------------------------------------------|
----------------------------------------------------|
----------------------------------------------------|
--0M----0M-0M-0M-0M---------------------------------|
--0M----0M-0M-0M-0M---------------------------------|
--0M----0M-0M-0M-0M-------0-----0M-0-----0M-0L------|


----------------------------|----------------------------|
----------------------------|----------------------------|
-----7--7--10-10-9--9--5----|----------------------------|
-----x--x--x--x--x--x--x----|--8--8--8--8--8--8--8--8----|
-----5--5--8--8--7--7--3----|--8--8--8--8--8--8--8--8----|
--0-------------------------|--8--8--8--8--8--8--8--8----|


----------------------------|----------------------------|
----------------------------|----------------------------|
----------------------------|----------------------------|
--8--8--8--8--8--8--8--8----|--10-10-10-10-10-10-10-10---|
--8--8--8--8--8--8--8--8----|--10-10-10-10-10-10-10-10---|
--8--8--8--8--8--8--8--8----|--10-10-10-10-10-10-10-10---|


----------------------------|-------|-------|
----------------------------|-------|-------|
----------------------------|-------|-------|
--10M10M10M10M10-10M10------|-------|-------|
--10M10M10M10M10-10M10------|-------|-------|
--10M10M10M10M10-10M10------|-------|-------|


----------------------------------------------------|
----------------------------------------------------|
--3--3--3--3--3--3--3--3--3--3--3--3--3--3--3--3----|
--3--3--3--3--3--3--3--3--3--3--3--3--3--3--3--3----|
--1--1--1--1--1--1--1--1--1--1--1--1--1--1--1--1----|
----------------------------------------------------|


----------------------------------------------------|
----------------------------------------------------|
--3--3--3--3--3--3--3--3--3-----3-----3-----3-------|
--3--3--3--3--3--3--3--3--3-----3-----3-----3-------|
--1--1--1--1--1--1--1--1--1-----1-----1-----1-------|
----------------------------------------------------|


----------------------------------------------------|
----------------------------------------------------|
----------------------------------------------------|
--5--5--5--5--5--5--5--5--5--5--5--5--5--5--5--5----|
--5--5--5--5--5--5--5--5--5--5--5--5--5--5--5--5----|
--5--5--5--5--5--5--5--5--5--5--5--5--5--5--5--5----|


----------------------------------------------------|
----------------------------------------------------|
----------------------------------------------------|
--5--5--5--5--5--5--5--5--7--------7--------7-------|
--5--5--5--5--5--5--5--5--7--------7--------7-------|
--5--5--5--5--5--5--5--5--7--------7--------7-------|


----------------------------------------------------|
----------------------------------------------------|
----------------------------------------------------|
--8--8--8--8--8--8--8--8--8--8--8--8--8--8--8--8----|
--8--8--8--8--8--8--8--8--8--8--8--8--8--8--8--8----|
--8--8--8--8--8--8--8--8--8--8--8--8--8--8--8--8----|


----------------------------------------------------|
----------------------------------------------------|
--5--5--5--5--5--5--5--5--5--5--5--5--5--5--5--5----|
--5--5--5--5--5--5--5--5--5--5--5--5--5--5--5--5----|
--3--3--3--3--3--3--3--3--3--3--3--3--3--3--3--3----|
----------------------------------------------------|


----------------------------------------------------|
----------------------------------------------------|
--7--7--7--7--7--7--7--7--7--7--7--7--7--7--7--7----|
--7--7--7--7--7--7--7--7--7--7--7--7--7--7--7--7----|
--5--5--5--5--5--5--5--5--5--5--5--5--5--5--5--5----|
----------------------------------------------------|


----------------------------------------------------|
----------------------------------------------------|
--7--7--7--7--7--7--7--7--5--------5--------5-------|
--7--7--7--7--7--7--7--7--5--------5--------5-------|
--5--5--5--5--5--5--5--5--3--------3--------3-------|
----------------------------------------------------|


----------------------------------------------------|
----------------------------------------------------|
--3--3--3--3--3--3--3--3--3--3--3--3--3--3--3--3----|
--3--3--3--3--3--3--3--3--3--3--3--3--3--3--3--3----|
--1--1--1--1--1--1--1--1--1--1--1--1--1--1--1--1----|
----------------------------------------------------|


----------------------------------------------------|
----------------------------------------------------|
--3--3--3--3--3--3--3--3--3-----3-----3-----3-------|
--3--3--3--3--3--3--3--3--3-----3-----3-----3-------|
--1--1--1--1--1--1--1--1--1-----1-----1-----1-------|
----------------------------------------------------|


----------------------------------------------------|
----------------------------------------------------|
----------------------------------------------------|
--5--5--5--5--5--5--5--5--5--5--5--5--5--5--5--5----|
--5--5--5--5--5--5--5--5--5--5--5--5--5--5--5--5----|
--5--5--5--5--5--5--5--5--5--5--5--5--5--5--5--5----|


----------------------------------------------------|
----------------------------------------------------|
----------------------------------------------------|
--5--5--5--5--5--5--5--5--7--------7--------7-------|
--5--5--5--5--5--5--5--5--7--------7--------7-------|
--5--5--5--5--5--5--5--5--7--------7--------7-------|


----------------------------------------------------|
----------------------------------------------------|
----------------------------------------------------|
--8--8--8--8--8--8--8--8--8--8--8--8--8--8--8--8----|
--8--8--8--8--8--8--8--8--8--8--8--8--8--8--8--8----|
--8--8--8--8--8--8--8--8--8--8--8--8--8--8--8--8----|


----------------------------------------------------|
----------------------------------------------------|
--5--5--5--5--5--5--5--5--5--5--5--5--5--5--5--5----|
--5--5--5--5--5--5--5--5--5--5--5--5--5--5--5--5----|
--3--3--3--3--3--3--3--3--3--3--3--3--3--3--3--3----|
----------------------------------------------------|


----------------------------|
----------------------------|
----------------------------|
--0L----------0M-0M----0L---|
--0L----------0M-0M----0L---|
--0L----------0M-0M----0L---|


----------------------------------------------------|
----------------------------------------------------|
----------------------------------------------------|
--0M----0M-0M-0M-0M-------0M-------0M-------0L------|
--0M----0M-0M-0M-0M-------0M-------0M-------0L------|
--0M----0M-0M-0M-0M-------0M-------0M-------0L------|


----------------------------------------------------|
----------------------------------------------------|
----------------------------------------------------|
--0M----0M-0M-0M-0M---------------------------------|
--0M----0M-0M-0M-0M---------------------------------|
--0M----0M-0M-0M-0M-------0-----0M-0-----0M-0L------|


----------------------------------------------------|
----------------------------------------------------|
----------------------------------------------------|
--------0M-0M-0M-0L----------------------0M---------|
--------0M-0M-0M-0L----------------------0M---------|
--0-----0M-0M-0M-0L----------------------0M---------|


----------------------------|
----------------------------|
----------------------------|
--0L----------0M-0M----0L---|
--0L----------0M-0M----0L---|
--0L----------0M-0M----0L---|


----------------------------------------------------|
----------------------------------------------------|
----------------------------------------------------|
--0M----0M-0M-0M-0M-------0M-------0M-------0L------|
--0M----0M-0M-0M-0M-------0M-------0M-------0L------|
--0M----0M-0M-0M-0M-------0M-------0M-------0L------|


----------------------------------------------------|
----------------------------------------------------|
----------------------------------------------------|
--0M----0M-0M-0M-0M---------------------------------|
--0M----0M-0M-0M-0M---------------------------------|
--0M----0M-0M-0M-0M-------0-----0M-0-----0M-0L------|


----------------------------------------------------|----||
----------------------------------------------------|----||
----------------------------------------------------|----||
--------0M-0M-0M-0M---------------------------------|----||
--------0M-0M-0M-0M---------------------------------|----||
--0-----0M-0M-0M-0M---------------------------------|----||
Добавлено: 12.10.2015
Другие материалы по этой песне:

Страница создана 12.10.2015
http://primanota.ru/blessthefall/up-in-flames-chords.htm
Привет, Гость.
Предлагаем пройти революционный курс по гитаре.
Подарок от PrimaNota.Ru, забирай!