PrimaNota.ru - самый крупный в мире бесплатный архив песенных текстов, аккордов, табулатур и нот


Bleach - Super Good Feeling - текст песни, таба, бас-таба, видео

Регистрация Запомнить меня
Войти через:  Facebook Google Twitter Vk Yandex Mail.ru

Bleach - Super Good Feeling - текст песни, таба, бас-таба, видео

Печатать
Просмотров: 343
		   Super Good Feeling
Bleach
Forefront
Tabliture by Jonny Gifford
Sojorn@hotmail.com

V1)
   -----------------------------------------------------------------------------
   -----------------------------------------------------------------------------
   -----------------------------------------------------------------------------
   -----------------------------------------------------------------------------
   --4\6-----------------------4\6---------4--3----4\6-----------6-4-2*---
   --2\4--(4x for the intro)--2\4--(4x)--2--1----2\4--(6x)----4-2-0*---

Chorus(1st)
   --------------------------
   --------------------------
   --------------------------
   --------------------------
   --6--4--2--4--6---------
   --4--2--0--2--4-(4x)---

V2)
   --------------------------------------------------------------
   --------------------------------------------------------------
   --------------------------------------------------------------
   --------------------------------------------------------------
   --4\6---------4--3---4\6-------- 4--3---4--3---6-4-2*---
   --2\4--(4x)--2--1---2\4--(6x)--2--1---2--1---4-2-0*---

Chorus(2nd)
   ---------------------------
   ---------------------------
   ---------------------------
   ---------------------------
   --6--4--2--4--6----------
   --4--2--0--2--4--(6x)---

Bridge/Solo
  --------------------------------------------------------------
  ----8--8--8--8----6--6--6--6--5+6--5---5+7-5----------
  ----------------------------------5+5--5---5+5-5----------
  --9--9--9--9----7--7--7--7----5+7--5---5+6-5--(4x)---
  --------------------------------------------------------------
  --------------------------------------------------------------

Chorus(3d)
   ----------------------------
   ----------------------------
   ----------------------------
   ----------------------------
   --8--6--4--6--8-----------
   --6--4--2--4--6--(11x)---

Lyrics)

My days are getting better
Since I read Your letter
Every day
Things are so much clearer
Since I let you nearer
Every day
I just cant wait to breathe Your air
Inside of me, inside of me
I just cant wait to see You there
Beside me, beside me

I got a super good feeling 
About today
I've got a clue that it's You
And Your never gonna go away

My world is spinning towards You
I fall down before You
Every day
I close my eyes together 
Jesus, You forever
Every day
I just can't wait to see You here
Beside me, beside me
     
Добавлено: 22.11.2013
Другие материалы по этой песне:
  • Аккорды и текст

Страница создана 19.03.2012
http://primanota.ru/bleach/super-good-feeling-chords.htm
Привет, Гость.
Предлагаем пройти революционный курс по гитаре.
Подарок от PrimaNota.Ru, забирай!