PrimaNota.ru - самый крупный в мире бесплатный архив песенных текстов, аккордов, табулатур и нот


Bleach - Waving Goodbye - текст песни, таба, бас-таба, видео

Регистрация Запомнить меня
Войти через:  Facebook Google Twitter Vk Yandex Mail.ru

Bleach - Waving Goodbye - текст песни, таба, бас-таба, видео

Печатать
Просмотров: 174
		   Waving Goodbye
Bleach
From the album Static
Copyright 1998 Forefront
Tab by Matthew LeCren             mtl1@ra.msstate.edu
 
Verse Progression:
A                 Dsus2
Life's too short, it seems
How quick it comes, how quick it leaves
Search for life in passing things. (Make the Dsus2 here a D)
I see bits of you in me
And I've got something you should see.
I am poor in most everything (hold a D)
But I will get a crown of kings.

Chorus:
A                E                             A
And I don't know where you'll be;
A                    E                        A
I hope it's with me - in the sky
A               E    F#m - E - D
Looking down way below - waving goodbye
I watched the time with you pass
I wish so much that it could last
If the Thief comes here tonight
I hope to see you on the other side

Repeat chorus
Solo 1

E---------------------------------------------------------------------------------------------------------------
B--------------------------------------------------------------------------------10-10-10-10-10-10-10-10-
G-------6-6h7-6h7-6---6h7-7^-7^-7^-7^-----6h7-6h7-6-10-9-7---------------------------------------
D----7------------------7-----------------------7---------------------------------------------------------------
A---------------------------------------------------------------------------------------------------------------
E---------------------------------------------------------------------------------------------------------------
 
E----9---9---9—9--9-9---9---9-----------------------------------------------------------------------------
B-10-10-10-10-10-10-10-10----10-10-10-10-10-10-10-10------------------------------------------
G---------------------------------------------------------------------------------------------------------------
D---------------------------------------------------------------------------------------------------------------
A---------------------------------------------------------------------------------------------------------------
E---------------------------------------------------------------------------------------------------------------

*These are power chords

A-F#-E-D

F#-A               E     F#-E            A-F#-A
       I don't know where you'll be
                       E                 A-F#-A
I hope it's with me in the sky
               E       F#-E-D                      A-F#-A
Looking down way below Waving Goodbye
              E         F#-E           A-F#-A
I don't know where you'll be
                         E                 A-F#-A
I hope it's with me in the sky
                E         F#-E-D 
Looking down way below Waving Goodbye

Solo 2
E---------------------------------------------------------------------------------------------------------------
B---------------------------------------------------------------------------------------------------------------
G-------6-6h7-6h7-6---6-6h7 6h7 6---6-6h7-6h7-6----6-6h7-6h7-6---9 (listen to the cd for rhythm)
D----7-------------------7------------------7-------------------7--------------------------------------------
A---------------------------------------------------------------------------------------------------------------
E---------------------------------------------------------------------------------------------------------------

Ok guys I'm really not sure about this part. This is from memory and I don't have my guitar in front of me so some of
these fret positions may be wrong. But I think they're right. If you find any errors, email me.

E---------------------------------------------------------------------------------------------------------------
B-14-14-14p12--------------------------12\17-15-15-15-14---12h14----17p15----12h14-12^-12^-
G-----------------13h14-13h14-13h14----------------------------------------------------------------------
D---------------------------------------------------------------------------------------------------------------
A---------------------------------------------------------------------------------------------------------------
E---------------------------------------------------------------------------------------------------------------

E---------------------------------------------------------------------------------------------------------------
B-14-14-14p12----------------------------------------------------------------------------------------------
G----------------13h14-13h14-9h11-9h11-9-9-9---------------------------------------------------------
D------------------------------------------------------12-12-12-12-12-11-11-11-11-11-9-7-9-11------
A---------------------------------------------------------------------------------------------------------------
E---------------------------------------------------------------------------------------------------------------

Some of this probably isn't 100% correct, but it should be close. This is my first attempt at writing a tab, so bear with me.
God Bless.  >      
Добавлено: 01.09.2013
Другие материалы по этой песне:
  • Аккорды и текст

Страница создана 16.05.2012
http://primanota.ru/bleach/waving-goodbye-chords.htm
Привет, Гость.
Предлагаем пройти революционный курс по гитаре.
Подарок от PrimaNota.Ru, забирай!