PrimaNota.ru - самый крупный в мире бесплатный архив песенных текстов, аккордов, табулатур и нот


Blasters - Long White Cadillac - таба, видео

Регистрация Запомнить меня
Войти через:  Facebook Google Twitter Vk Yandex Mail.ru

Blasters - Long White Cadillac - таба, видео

Печатать
Просмотров: 208
chords are: E 022100 A xo222o B7 x21202

               "LONG WHITE CADILLAC" by The Blasters

|---0-0----0-0-----0---0--3-2-0----|-0-0----0-0----0-------------|
|-------3b-----3b----3-----------3-|-----3b-----3b---3-0-2b--0---|
|----------------------------------|---------------------------2-|
|----------------------------------|-----------------------------|
|----------------------------------|-----------------------------|
|----------------------------------|-----------------------------|

|---0-0----0-0----0---0--3-2-0---|-------------------------|
|-------3b-----3b---3----------3-|-------------------------|
|--------------------------------|-------------------------|
|--------------------------------|-----0tr2-0tr2-0tr2-0tr2-|
|--------------------------------|-------------------------|
|--------------------------------|-0~~~--------------------|

|---0~~-----------------------------|
|---0~~-----------------------------|
|-----------------------------------|
|-----------------------------------|
|---------2---2---2---2---2---2---2-|
|-------0---3---0---3---0---3---0---|

[E] Night wolves moan Winter hills are black
I'm all al-[A]one Sitting in the [E] back
Of a long white [B7] Cadil-[E]lac

[E] Train whistle cries Lost on its own track
I close my [A] eyes Sitting in the [E] back
Of a long white [B7] Cadil-[E]lac

|---0-0----0-0-----0---0--3-2-0----|-0-0----0-0----0-------------|
|-------3b-----3b----3-----------3-|-----3b-----3b---3-0-2b--0---|
|----------------------------------|---------------------------2-|
|----------------------------------|-----------------------------|
|----------------------------------|-----------------------------|
|----------------------------------|-----------------------------|

|---0-0----0-0----0---0--3-2-0---|-------------------------|
|-------3b-----3b---3----------3-|-------------------------|
|--------------------------------|-------------------------|
|--------------------------------|-----0tr2-0tr2-0tr2-0tr2-|
|--------------------------------|-------------------------|
|--------------------------------|-0~~~--------------------|

[A] Sometimes I blame it on a [E] woman
[A] The one who made my poor heart [E] bleed
[A] Sometimes I blame it on the [E] money
[A] Sometimes I blame it all on [B7] me

Headlights [E] shine Highway fades to black
It's my last [A] ride Sitting in the [E] back
Of a long white [B7] Cadil-[E]lac


and thats all!
just do this stuff a couple more times with the other lyrics!
yay!

-Bert
Добавлено: 11.03.2012
Другие материалы по этой песне:
  • Аккорды и текст

Страница создана 11.03.2012
http://primanota.ru/blasters/long-white-cadillac-chords.htm
Привет, Гость.
Предлагаем пройти революционный курс по гитаре.
Подарок от PrimaNota.Ru, забирай!