PrimaNota.ru - самый крупный в мире бесплатный архив песенных текстов, аккордов, табулатур и нот


Blasters - I Fell In Love - таба, видео

Регистрация Запомнить меня
Войти через:  Facebook Google Twitter Vk Yandex Mail.ru

Blasters - I Fell In Love - таба, видео

Печатать
Просмотров: 137
here's a good song off of the blasters first album


                   "I FELL IN LOVE" by The Blasters
intro:
|---0-3-0-|--/5--5-5-5--/5--5-5-5---8-7-5--------------------------|
|---------|--/5--5-5-5--/5--5-5-5----------8-7-5-------7b-7b-7b-7--|
|---------|---------------------------------------8----7b-7b-7b-7--|
|---------|------------------------------------------7-------------|
|---------|--------------------------------------------------------|
|---------|--------------------------------------------------------|

|---------------------------|
|---------------------------|
|---5-5----5--7--5-5---5--7-|
|--------7-----------7------|
|---------------------------|
|---------------------------|

--little-country-drugstore-drinkin-sodapop--
|-------------------------------------------|
|-------------------------------------------|
|----------------------------2--0-----------|
|---2-2------2-2-------2-2---------2--0-----|
|---0-0------0-0--3-3--0-0---------------3b-|
|--------3-3--------------------------------|

--in-walked-a-girl-and-she-started-to-rock
|-------------------------------------------|
|-------------------------------------------|
|----------------------------2--0-----------|
|---2-2------2-2-------2-2---------2--0-----|
|---0-0------0-0--3-3--0-0---------------3b-|
|--------3-3--------------------------------|


--she-looked-at-me-i-said-my-heart-went-wild
|-------------------------------------------|
|-------------------------------------------|
|---2-2------2-2-------2-2-----2-2----------|
|---0-0------0-0--3-3--0-0-----0-0--3-3-----|
|--------3-3---------------3-3--------------|
|-------------------------------------------|

--i-said-uhuh-honey-well-its-happenin-now
|-----------------------------------------|
|---------2-----------------2-------------|
|---------2-----------------2-------------|
|---------2-----------------2-------------|
|-----------------------------------------|
|-----------------------------------------|

--hey-yeah------------i-fell-in-love!-
|------------------------------------|
|------------------------------------|
|------------------------------------|
|------------------------------------|
|----------------2---4/5-5-5-4-4--2--|
|---0--0-0--3-4----0-----------------|


|-------------------------------------------|
|-------------------------------------------|
|----------------------------2--0-----------|
|---2-2------2-2-------2-2---------2--0-----|
|---0-0------0-0--3-3--0-0---------------3b-|
|--------3-3--------------------------------|


repeat the verse parts with the other verses and end with:

|---0-3-0-|--/5--5-5-5--/5--5-5-5------------5~~~----------|
|---------|--/5--5-5-5--/5--5-5-5------------5~~~----------|
|---------|-------------------------7--5-----6~~~----------|
|---------|-------------------------------7--7~~~----------|
|---------|----------------------------------7~~~----------|
|---------|----------------------------------5~~~----------|


and that's all yay!!

-Bert
Добавлено: 07.03.2012
Другие материалы по этой песне:
  • Аккорды и текст

Страница создана 07.03.2012
http://primanota.ru/blasters/i-fell-in-love-chords.htm
Привет, Гость.
Предлагаем пройти революционный курс по гитаре.
Подарок от PrimaNota.Ru, забирай!