PrimaNota.ru - самый крупный в мире бесплатный архив песенных текстов, аккордов, табулатур и нот


Black Rebel Motorcycle Club - Shade Of Blue - текст песни, таба, бас-таба, видео

Регистрация Запомнить меня
Войти через:  Facebook Google Twitter Vk Yandex Mail.ru

Black Rebel Motorcycle Club - Shade Of Blue - текст песни, таба, бас-таба, видео

Печатать
Просмотров: 131
Song: Shade Of Blue
Artist: Black Rebel Motorcycle Club
Album: Take Them On, On Your Own
Guitarist: Peter Hayes 
Tuning: Drop D tuning
Tabbed by: Pini-Glock

One of my favorite BRMC songs, not that hard to play though! 


If you have suggestions or questions you can always leave a comment at my UG page! :)

Anyways enjoy this great song! 

Cheers! Nick

----------------------------------------------------------------------------------------

Main riff played over all verses: 

e |---------------------------------------------------------------------------------------------------|
B |---------------------------------------------------------------------------------------------------|
G |---------------------------------------------------------------------------------------------------|
D |---------------------------------------------------------------------------------------------------|
A |---------------------------------------------------------------------------------------------------|
D |--12-12-15-12-12-12-15-5-5-8-5-5-0-0-0-------------------------------------------------------------|


Solo played over the bridge: 

e |---------------------------------------------------------------------------------------------------|
B |---------------------------------------------------------------------------------------------------|
G |--11-14-11-14b-11-9-11-9-7-9b-7-9-7---4-7-7-4-4-4-4-4----------------------------------------------|
D |---------------------------------------------------------------------------------------------------|
A |---------------------------------------------------------------------------------------------------|
D |---------------------------------------------------------------------------------------------------|

Second time solo: 

e |---------------------------------------------------------------------------------------------------|
B |---------------------------------------------------------------------------------------------------|
G |--11-14-11-14-14-14-14-11-9-11-9-7-9-9-9-7-9-7---4-7-7-7-7-4-4-4-4-4-4-4-4-------------------------|
D |---------------------------------------------------------------------------------------------------|
A |---------------------------------------------------------------------------------------------------|
D |---------------------------------------------------------------------------------------------------|

Played of the chorus: 

e |--2-2-2-2-2-2-2-2--0-0-0-0-0-0-0-0--0-0-0-0-0-0-0-0--0-0-0-0-0-0-0-0-0-----------------------------|
B |--3-3-3-3-3-3-3-3--3-3-3-3-3-3-3-3--1-1-1-1-1-1-1-1--0-0-0-0-0-0-0-0-0-----------------------------|
G |--2-2-2-2-2-2-2-2--0-0-0-0-0-0-0-0--0-0-0-0-0-0-0-0--0-0-0-0-0-0-0-0-0-----------------------------|
D |---------------------------------------------------------------------------------------------------|
A |---------------------------------------------------------------------------------------------------|
D |---------------------------------------------------------------------------------------------------|

--------------------------------------------------------------------------------------------------------

Intro: Main riff x 4: 

Riff 1: 
"I've been here before,
 I know this shade of blue, it's you
Riff 1: 
 I've felt your touch before
 I know your way,
Riff 1: 
 A ghostlike sense of state, you're gone
Riff 1: 
 So it seems you know me,
 I will wait for you, I do


SOLO 

Chorus: 
 I don't care if you can take it
 I can't take it anymore, I'll die
Chorus: 
 Don't mind if you can take it
 I can't take it anymore, I'll die

Riff 1: 
 Slowly I relive a better past a time
 I thought I knew, I blew
Riff 1: 
 Now I'm patient now I know I'll last
 I'll last
Riff 1: 
 I've always known it's true, with you


SOLO

Chorus: 
 I don't care if you can take it
 I can't take it anymore, I'll die
Chorus: 
 Don't mind if you can take it
 I can't take it anymore, I'll die

Chorus: 
 I don't care if you can take it
 I can't take it anymore, I'll die
Chorus: 
 Don't mind if you can take it
 I can't take it anymore, I'll die" 
Добавлено: 06.11.2015
Другие материалы по этой песне:

Страница создана 19.04.2012
http://primanota.ru/black-rebel-motorcycle-club/shade-of-blue-chords.htm
Привет, Гость.
Предлагаем пройти революционный курс по гитаре.
Подарок от PrimaNota.Ru, забирай!