PrimaNota.ru - самый крупный в мире бесплатный архив песенных текстов, аккордов, табулатур и нот


Black Rebel Motorcycle Club - Six Barrel Shotgun - текст песни, бас-таба, видео

Регистрация Запомнить меня
Войти через:  Facebook Google Twitter Vk Yandex Mail.ru

Black Rebel Motorcycle Club - Six Barrel Shotgun - текст песни, бас-таба, видео

Печатать
Просмотров: 294
Verse

G----------------------------------|
D----------------------------1-3p1-|
A--3---3---3-3-3-3---3-3-3-3-------|
E----------------------------------|

G----------------------------------|
D----------------------------1-3p1-|
A--1h3-3-3-3-3-3-3-3-3-3-3-3-------|
E----------------------------------|


Chorus

G------------------------------------|
D------------------------------------|
A--1---1---1-1-1---------------------|
E------------------0---0-0-0-0-0-0-0-|

G----------------------------------|
D----------------------------1-3p1-|
A--1h3-3-3-3-3-3-3-3-3-3-3-3-------|
E----------------------------------|

G------------------------------------|
D------------------------------------|
A--1---1---1-1-1---6---6-6-6-6-6-6-6-|
E------------------------------------|

G------|
D------|
A--3---|
E------|

Bridge

G----------------------------------------|
D-----------------13h15-------------8-10-|
A--11-11-11-11-11---------8-8-8-8-8------|  3x
E----------------------------------------|

G----------------------------------|
E--8-8-8-8-8-8-8-8-----------------|
A------------------6-6-6-6-6-6-6-6-|  2x
E----------------------------------|

G------|
D------|
A--3---|
E------|

Ending (1:59)

G----------------------------------------|
D-----------------13h15-------------8-10-|
A--11-11-11-11-11---------8-8-8-8-8------|  3x
E----------------------------------------|

G----------------------------------|
E--8-8-8-8-8-8-8-8-----------------|
A------------------6-6-6-6-6-6-6-6-|
E----------------------------------|

G----------------------------------|
D----------------------------1-3p1-|
A--1h3-3-3-3-3-3-3-3-3-3-3-3-------|  3x
E----------------------------------|

G---------------------------------------|
D----------------8h10-10-10-10-10-10-10-|
A--1/3-3-3-3-3-3------------------------|
E---------------------------------------|

G------------------------------------|
D------------------------------------|
A--1---1---1-1-1---------------------|
E------------------0---0-0-0-0-0-0-0-|

G----------------------------------|
D----------------------------1-3p1-|
A--1/3-3-3-3-3-3-3-3-3-3-3-3-------|
E----------------------------------|

G------------------------------------|
D------------------------------------|
A--1---1---1-1-1---6---6-6-6-6-6-6-6-|
E------------------------------------|

G----------------------------------|
D----------------------------1-3p1-|
A--1/3-3-3-3-3-3-3-3-3-3-3-3-------|
E----------------------------------|

G------------------------------------|
D------------------------------------|
A--1---1---1-1-1---6---6-6-6-6-6-6-6-|  3x
E------------------------------------|

G----------------------------------|
D----------------------------1-3p1-|
A--1h3-3-3-3-3-3-3-3-3-3-3-3-------|  3x
E----------------------------------|

G---------------------------------------|
D----------------8h10-10-10-10-10-10-10-|
A--1/3-3-3-3-3-3------------------------|
E---------------------------------------|

G------|
D------|
A--1---|
E------|
Добавлено: 25.03.2012
Другие материалы по этой песне:

Страница создана 22.02.2012
http://primanota.ru/black-rebel-motorcycle-club/six-barrel-shotgun-chords.htm
Привет, Гость.
Предлагаем пройти революционный курс по гитаре.
Подарок от PrimaNota.Ru, забирай!