PrimaNota.ru - самый крупный в мире бесплатный архив песенных текстов, аккордов, табулатур и нот


Black Lab - Learn To Crawl - аккорды и текст, таба, видео

Регистрация Запомнить меня
Войти через:  Facebook Google Twitter Vk Yandex Mail.ru

Black Lab - Learn To Crawl - аккорды и текст, таба, видео

Печатать
Просмотров: 255
Уроки эстрадного вокала в Санкт-Петербурге
Авторы: Andy Ellis, Paul Durham

Learn To Crawl
Black Lab
		   Song: Learn to Crawl
Group: Black Ab
CD: Spider-Man Soundtrack
Lyrics: Durham/Ellis
Music: Black Ab
Label: Sony
Year: 2002
----------------------------------
Tabbed and Submitted by Tie Kaye

Tuning:

Intro/Verse:
     e-|--------------|---------------|---------------|------------|
     B-|--------------|---------------|---------------|------------|
     G-|--------------|---------------|---------------|------------|
     D-|--------------|---------------|---------------|------------|
     A-|-0-0---0-12---|-0---0-10------|-0-0---0-9-0-5-|-4-4h5p4----|
     E-|--------------|---------------|---------------|----------3-|

Pre-Chorus:
     e-|-----------------------------------|
     B-|-----------------------------------|
     G-|-----------------------------------| x2
     D-|-----3-------3-------5-------5-----|
     A-|---3---3---3---3---5---5---5---5---|
     E-|-1-------1-------3-------3-------3-|

Chorus: (Strummed)
     e-|--------------|---------------|--------------|--------------|
     B-|--------------|---------------|--------------|--------------|
     G-|--------------|---------------|--------------|--------------|
     D-|-7------------|-10------------|-5------------|-3------------|
     A-|-7------------|-10------------|-5------------|-3------------|
     E-|-5------------|-8-------------|-3------------|-1------------|

Bridge:
     e-|------------------------------|------------------------------|
     B-|------------------------------|------------------------------|
     G-|------------------------------|------------------------------|
     D-|-777-7-7-7--------------------|-555-5-5-5--------------------|
     A-|-777-7-7-7-12-10--------------|-555-5-5-5-12-10--------------|
     E-|-555-5-5-5-------10-12-10-8-5-|-333-3-3-3-------10-12-10-8-5-|

     e-|------------------------------|------------------------------|
     B-|------------------------------|------------------------------|
     G-|-555-5-5-5--------------------|------------------------------|
     D-|-555-5-5-5--------------------|-333-3-3-5--------------------|
     A-|-333-3-3-3-12-10--------------|-333-3-3-5-12-10--------------|
     E-|-----------------10-12-10-8-5-|-111-1-1-3-------10-12-10-8-5-|


Intro x3

Verse (palm muted)
     You can laugh, you can feel fine
     You can dance with a little twist

Verse (palm muted)
     I tell you, pretty red-haired babe
     You forget that I exist

Verse
     Can you see yourself in my bed at night?
     Would you leave me at the side of the road?

Verse
     Would you walk right up to me?
     Would you talk to me? (I'm already...)

Pre-Chorus
     (..asking) Down on my
     Knees (I'm already...)
     (...begging) Begging you
     Please: Can you teach me how to

Chorus
     Fly? (C'mon!) Can't you see I'm scared to
     Die? (C'mon!) And I've only just
     Begun to learn to
     Crawl; Can you teach me how to

Chorus
     Fight? (C'mon!) Would you keep me up all
     Night? (C'mon!) Will you be there on the
     Ground if I should
     Fall? Fall...

Intro
     ...for you

Intro

Verse
     I can feel it like the spider's sting
     Like a memory in my mouth

Verse
     I feel like the morning fell
     Like the bottom's falling out

Verse
     I can see what's up there above it all
     And down in the valley below

Verse
     I can walk right up to you
     I can talk to you (I'm already...)

Pre-Chorus
     (..asking) Down on my
     Knees (I'm already...
     ...begging) Begging you
     Please: Can you teach me how to

Chorus
     Fly? (C'mon!) Can't you see I'm scared to
     Die? (C'mon!) And I've only just
     Begun to learn to
     Crawl; Can you teach me how to

Chorus
     Fight? (C'mon!) Would you keep me up all
     Night? (C'mon!) Will you be there on the
     Ground if I should
     Fall? Fall...

Intro
     ...for you. Fall...

1st Half of Intro x2
     ...for you

Bridge
     (Na-na, na, na, na)
     (Na-na, na, na, na)
     (Na-na, na, na, na)
     (Na-na, na, na, na)

Bridge
     (Na-na, na, na, na)
     (Na-na, na, na, na)
     (Na-na, na, na, na)
             Yeaaaaaaaaaaaaaaaaaa...
     (Na-na, na, na, na)
     aaaaaaaaaaaaah! Can you teach me how to

Chorus
     Fly? (C'mon!) Can't you see I'm scared to
     Die? (C'mon!) And I've only just
     Begun to learn to
     Crawl; Can you teach me how to

Chorus
     Fight? (C'mon!) Would you keep me up all
     Night? (C'mon!) Will you be there on the
     Ground if I should
     Fall? Fall...
                  (Na-na...)
Bridge:
          ...for you
          (...na, na, na)
          (Na-na, na, na, na)
     Fall for you
          (Na-na, na, na, na)
          (Na-na, na, na, na)
     Fall for you     
Добавлено: 14.10.2013
Другие материалы по этой песне:

Страница создана 14.03.2012
http://primanota.ru/black-lab/learn-to-crawl-chords.htm
Привет, Гость.
Предлагаем пройти революционный курс по гитаре.
Подарок от PrimaNota.Ru, забирай!