PrimaNota.ru - самый крупный в мире бесплатный архив песенных текстов, аккордов, табулатур и нот


Black, Frank - Jet Black River - текст песни, таба, видео

Регистрация Запомнить меня
Войти через:  Facebook Google Twitter Vk Yandex Mail.ru

Black, Frank - Jet Black River - текст песни, таба, видео

Печатать
Просмотров: 162
A very fine song from the new Black Letter Days record. It's about 
coffee addiction, I think. Corrections are welcome anytime!

Frank Black & the Catholics
Jet Black River
Transcribed by Jelle (nerveuzeserveuse@yahoo.com)

Intro:

Play around a bit with these notes:

E--------------------------------------------------------------------
B----5---8---5--8---------6---9---6--9---------5---8---5--8----------
G--5---5---5------5-----6---6---6------6-----5---5---5-------5-------
D--------------------------------------------------------------------

E---------------------------
B----8---11---8--11---------
G--8---8----8-------8-------
D---------------------------

Then there's this funky riff, with probably these two chords:
(listen to the song for the rhythm)

E-------------1------------------------------------------------------
B------7------1------------------------------------------------------
G------8------2------------------------------------------------------
D------6------3------------------------------------------------------
A-------------3------------------------------------------------------
E-------------1------------------------------------------------------

		 (F)			
		
Singing part:

C#				   C
   Jet black ... 

       C#  	  	C
What's ...

   C#		        Eb*
Revealing ...

   G# 		    	F	 
And giving up ...

  C		        C#	
I think ...

	 C              C#
Sweet ...

    C	     		Eb*
But ...

Repeat:
G#m		        F
  Jet black ...
(second guitar plays funky riff)


Eb*

E------
B--8---
G--8---
D--8---
A--6---
E------

     
Добавлено: 24.09.2013
Другие материалы по этой песне:
  • Аккорды и текст

Страница создана 24.09.2013
http://primanota.ru/black-frank/jet-black-river-chords.htm
Привет, Гость.
Предлагаем пройти революционный курс по гитаре.
Подарок от PrimaNota.Ru, забирай!