PrimaNota.ru - самый крупный в мире бесплатный архив песенных текстов, аккордов, табулатур и нот


Black, Frank - Duke Of Earl - таба, видео

Регистрация Запомнить меня
Войти через:  Facebook Google Twitter Vk Yandex Mail.ru

Black, Frank - Duke Of Earl - таба, видео

Печатать
Просмотров: 132
Duke of Earl
Frank Black
Brought to you by the Bean
bigearedbean@hotmail.com

[Intro Riff]

e|-------------------------------------------------|
b|-------------------------------------------------|
G|-------------------------------------------------|
D|--3-3-3--3-2--0-0-0--0-3-----------0-----------0-|
A|--------------------------1-1-1--1----3-3-3--3---|
E|-------------------------------------------------|

Verse:
Riff continues to be played with chords added, thus:

    F		Dm	    Bb		C
e|--1-----------1-----------1-----------0----------|
b|--1-----------3-----------3-----------1----------|
G|--2-----------2-----------3-----------0----------|
D|--3-3-3--3-2--0-0-0--0-3--3--------0--2--------0-|
A|--3-----------------------1-1-1--1----3-3-3--3---|
E|--1----------------------------------------------|

Chords played, palm muted, on beats.

Chorus:
F
Yes I...
Dm
Yes I'm gonna love you...
		Bb
Nothing can stop me now
			C
Coz I'm the duke of Earl

That's about it; as ever, any comment, complaint, suggestions, requests etc. 
to bigearedbean@hotmail.com please :)

.MS.
     
Добавлено: 24.07.2013
Другие материалы по этой песне:

Страница создана 11.04.2012
http://primanota.ru/black-frank/duke-of-earl-chords.htm
Привет, Гость.
Предлагаем пройти революционный курс по гитаре.
Подарок от PrimaNota.Ru, забирай!