PrimaNota.ru - самый крупный в мире бесплатный архив песенных текстов, аккордов, табулатур и нот


Black Eyed Peas - The Situation - текст песни, таба, видео

Регистрация Запомнить меня
Войти через:  Facebook Google Twitter Vk Yandex Mail.ru

Black Eyed Peas - The Situation - текст песни, таба, видео

Печатать
Просмотров: 136
-------------------------------------------------------------------------------
                             The Situation - Black Eyed Peas
-------------------------------------------------------------------------------
Tabbed by:Dat0Weird0Guy
E-mail: honoroll23@yahoo.com

Tuning:Standard

Intro and Verses:

E|-------------------------------------------------------------------------------------|
B|-------------------------------------------------------------------------------------|
G|-------9----------9---------6---------6----------------------------------------------|
D|-------9----------9---------6---------6-------6----------6--------9----------9-------|
A|--7-7-----7-7-7-7-----7-4-4---4-4-4-4---4-----6----------6--------9----------9-------|
E|------------------------------------------4-4----4-4-4-4----4-7-7----7-7-7-7---------|

Bridge "you make me glow...":

E|-------------------------------------------------------------------------|
B|-------------------------------------------------------------------------|
G|-----------------9-----------------6-------------------------------------|
D|-----------------------------------------------------6----------------9--|
A|--7-7-7-7-7-7-7----4-4-4-4-4-4-4-----------------------------------------|
E|--------------------------------------4-4-4-4-4-4-4-----7-7-7-7-7-7-7----|

E|------------------------------------------------------------------------------|
B|------------------------------------------------------------------------------|
G|-----------------9-----------------6------------------------------------------|
D|-----------------------------------------------------6------------------------|
A|--7-7-7-7-7-7-7----4-4-4-4-4-4-4----------------------------------------------|
E|--------------------------------------4-4-4-4-4-4-4---------------------------|

Chorus

E|----------------------------------------------------------------------------------|
B|----------------------------------------------------------------------------------|
G|----9----9----9----9----6----6----6----6------------------------------------------|
D|--------------------------------------------6----6----6----6----9----9----9----9--|
A|--7----7----7----7----4----4----4----4--------------------------------------------|
E|------------------------------------------4----4----4----4----7----7----7----7----|

E|----------------------------------------------------------------|
B|----------------------------------------------------------------|
G|----9----9----9----9----6----6----6----6------------------------|
D|--------------------------------------------6----6----6----6----|
A|--7----7----7----7----4----4----4----4--------------------------|
E|------------------------------------------4----4----4----4------|

After Chorus

E|----------------------------------------------------------------------------------------|
B|----------------------------------------------------------------------------------------|
G|--9----9---------9----------------6---------6-------------------------------------------|
D|-------------------------------------------------------6-----------6-------------9--9---|
A|----7----7-7-7-7----7--/--4-4-4-4----4-4-4-4--------------------------------------------|
E|-----------------------------------------------4-4-4-4----4-4-4-4-------7-7-7-7---7--7--|

Apl.De.Ap ""some times we don't..."


E|-------------------------------------------------------------------------------------|
B|-------------------------------------------------------------------------------------|
G|-------------------------------------------------------------------------------------|
D|-------------------------------------------------------------------------------------|
A|--7--7--7--7--4--4--4--4-------------------------------------------------------------|
E|---------------------------4--4--4--4--7--7--7--7------------------------------------|

E|-------------------------------------------------------------------------|
B|-------------------------------------------------------------------------|
G|----9----9----9----9------6----6----6----6-------------------------------|
D|--------------9----9----------------6----6----------6--6----6------------|
A|--7----7------7----7----4----4------4----4-------------6----6------------|
E|--------------------------------------------------4----4----4----7----7--|

E|------------------------------------------------------------------------------------------|
B|------------------------------------------------------------------------------------------|
G|----9----9----9----9------6----6----6----6------------------------------------------------|
D|--------------9----9----------------6----6----------6----6----6----6----------------------|
A|--7----7------7----7----4----4------4----4--------------------6----6----------------------|
E|--------------------------------------------------4----4------4----4----7----7----7----7--|

accompanied by:

E|--9~---7~---9~----7~----(repeat till bridge)-------------------------------|
B|---------------------------------------------------------------------------|
G|---------------------------------------------------------------------------|
D|---------------------------------------------------------------------------|
A|---------------------------------------------------------------------------|
E|---------------------------------------------------------------------------|


Bridge "you make me glow...":

E|-------------------------------------------------------------------------|
B|-------------------------------------------------------------------------|
G|-----------------9-----------------6-------------------------------------|
D|-----------------------------------------------------6----------------9--|
A|--7-7-7-7-7-7-7----4-4-4-4-4-4-4-----------------------------------------|
E|--------------------------------------4-4-4-4-4-4-4-----7-7-7-7-7-7-7----|

E|------------------------------------------------------------------------------|
B|------------------------------------------------------------------------------|
G|-----------------9-----------------6------------------------------------------|
D|-----------------------------------------------------6------------------------|
A|--7-7-7-7-7-7-7----4-4-4-4-4-4-4----------------------------------------------|
E|--------------------------------------4-4-4-4-4-4-4---------------------------|

Chorus

E|--------------------------------------------------------------------------------|
B|--------------------------------------------------------------------------------|
G|-----------------9-----------------6-6------------------------------------------|
D|------------------------------------------------------------------------9--9----|
A|--7-7-7-7-7-7-7----4-4-4-4-4-4-4------------------------------------------------|
E|---------------------------------------4-4-4-4-4-4-4-4----7-7-7-7-7-7-----------|

E|----------------------------------------------------------------------------|
B|----------------------------------------------------------------------------|
G|-----------------9-----------------6-6--------------------------------------|
D|-------------------------------------------------------------------9-9-9-9--|
A|--7-7-7-7-7-7-7----4-4-4-4-4-4-4--------------------------------------------|
E|---------------------------------------4-4-4-4-4-4-4-4----7-7-7-7-----------|

Play softly on the e and a strings, emphasis is on the power chord:

E|---------------------------------------------------------------------------------------|
B|---------------------------------------------------------------------------------------|
G|-------9----------9---------6---------6------------------------------------------------|
D|-------9----------9---------6---------6-------6----------6--------9----------9---------|
A|-------7-7-7-7-----7-4-4---4-4-4-4---4-----6----------6--------9----------9------------|
E|------------------------------------------4-4----4-4-4-4----4-7-7----7-7-7-7-----------|

E|-------------------------------------------------------------------------|
B|-------------------------------------------------------------------------|
G|----9----9----9----9------6----6----6----6-------------------------------|
D|--------------9----9----------------6----6----------6--6----6------------|
A|--7----7------7----7----4----4------4----4-------------6----6------------|
E|--------------------------------------------------4----4----4----7----7--|

E|------------------------------------------------------------------------------------------|
B|------------------------------------------------------------------------------------------|
G|----9----9----9----9------6----6----6----6------------------------------------------------|
D|--------------9----9----------------6----6----------6----6----6----6----------------------|
A|--7----7------7----7----4----4------4----4--------------------6----6----------------------|
E|--------------------------------------------------4----4------4----4----7----7----7----7--|

accompanied by:

E|--9~---7~---9~----7~---------------------------------------------------------|
B|-----------------------------------------------------------------------------|
G|-----------------------------------------------------------------------------|
D|-----------------------------------------------------------------------------|
A|-----------------------------------------------------------------------------|
E|-----------------------------------------------------------------------------|

End with :

E|----------------------------------------------------------------------------------------------|
B|----------------------------------------------------------------------------------------------|
G|----9----9----9----9------6----6----6----6----------------------------------------------------|
D|--------------9----9----------------6----6----------6----6----6----6--------9----9----9----9--|
A|--7----7------7----7----4----4------4----4--------------------6----6--------------------------|
E|--------------------------------------------------4----4------4----4----7----7----7----7------|
Добавлено: 16.07.2013
Другие материалы по этой песне:
  • Аккорды и текст

Страница создана 16.07.2013
http://primanota.ru/black-eyed-peas/the-situation-chords.htm
Привет, Гость.
Предлагаем пройти революционный курс по гитаре.
Подарок от PrimaNota.Ru, забирай!