PrimaNota.ru - самый крупный в мире бесплатный архив песенных текстов, аккордов, табулатур и нот


Bjork - Cocoon - текст песни, бас-таба, видео

Регистрация Запомнить меня
Войти через:  Facebook Google Twitter Vk Yandex Mail.ru

Bjork - Cocoon - текст песни, бас-таба, видео

Печатать
Просмотров: 129
Уроки эстрадного вокала в Санкт-Петербурге
Авторы музыки: Björk, Thomas Knak

(p) Pull Off  (v) Vibrato

This is a very easy song to learn on bass. That's all that has to be said, really. Hope 
this tab is accurate/helpful!

Main line (from start of song)->occurs for the vast majority of the song

Gb|----------------16---------------------------|
Db|--17----14--17------17--------14--17v--------|
Ab|--16----------------------16-----------------|
Eb|---------------------------------------------|


Alternative line (who would have known a beauty this immense, etc) x4

Gb|--15--------------------------|
Db|--------17--15--17p15---------|
Ab|-----------------------18v----|
Eb|------------------------------|


Outro (To a boy, to a boy, etc until very end)

Gb|--17--------17--21--17----17----------17v------|
Db|--------19--------------------15--19-----------|
Ab|-----------------------------------------------|
Eb|-----------------------------------------------|
Добавлено: 30.03.2016
Другие материалы по этой песне:
  • Аккорды и текст

Страница создана 11.04.2012
http://primanota.ru/bjork/cocoon-chords.htm
Привет, Гость.
Предлагаем пройти революционный курс по гитаре.
Подарок от PrimaNota.Ru, забирай!