PrimaNota.ru - самый крупный в мире бесплатный архив песенных текстов, аккордов, табулатур и нот


Billy Talent - Cold Turkey - таба, бас-таба, видео

Регистрация Запомнить меня
Войти через:  Facebook Google Twitter Vk Yandex Mail.ru

Billy Talent - Cold Turkey - таба, бас-таба, видео

Печатать
Просмотров: 170
Авторы музыки: John Lennon
Авторы текста: John Lennon
 Intro
E|---------------------------------------------------------------|
B|-5b-5b-5b-5b-5-3-----------------------------------------------|
G|-5b-5b-5b-5b-5-3-5-3-5-----------------------------------------| 
D|-----------------5-3-5-----------------------------------------|
A|---------------------------------------------------------------|
E|---------------------------------------------------------------|

  
E|---------------------------------------------------------------|
B|-7---------5--------3b--------5--------------------------------|
G|-7---------5--------3b--------5--------------------------------| 
D|---------------------------------------------------------------|
A|----3-5-5----3-5-5-----3-5-5-----------------------------------|
E|----1-3-3----1-3-3-----1-3-3-----------------------------------|

  Verse
E|---------------------------------------------------------------|
B|---------------------------------------------------------------|
G|---------------------------------------------------------------|  x 3
D|-5p3p0---------------------------------------------------------|
A|-------3-1--3-5-5----------------------------------------------|
E|------------1-3-3----------------------------------------------|


E|---------------------------------------------------------------|
B|---------------------------------------------------------------|
G|---------------------------------------------------------------|  x 4 
D|-5p3p0---------------------------------------------------------|
A|-------3-1--3-5-5-5-5------------------------------------------|
E|------------1-3-3-3-3------------------------------------------|

  Chorus
E|---------------------------------------------------------------|
B|---------------------------------------------------------------|
G|---------------------------------------------------------------|  
D|---------------------------------------------------------------|
A|-8-8-8-8-8-8-8-8-8-8-8-8-8-8-8-9-10-10-10-10-10-10-10-10-3-----|
E|-6-6-6-6-6-6-6-6-6-6-6-6-6-6-6-7-8--8--8--8--8--8--8--8--1-----|

  Bridge
E|---------------------------------------------------------------|
B|-7---------5--------3b--------5--------------------------------|
G|-7---------5--------3b--------5--------------------------------| 
D|---------------------------------------------------------------|
A|----3-5-5----3-5-5-----3-5-5-----------------------------------|
E|----1-3-3----1-3-3-----1-3-3-----------------------------------|


  Solo
E|---------------------------------------------------------------|
B|-5b-5b-5b-5b-5b-5-3-----3--------------------------------------|
G|-5b-5b-5b-5b-5b-5-3-5-3-3--------------------------------------|  x 8 
D|--------------------5-3----------------------------------------|
A|---------------------------------------------------------------|
E|---------------------------------------------------------------|


  Chorus
E|---------------------------------------------------------------|
B|---------------------------------------------------------------|
G|---------------------------------------------------------------|  
D|---------------------------------------------------------------|
A|-8-8-8-8-8-8-8-8-8-8-8-8-8-8-8-9-10-10-10-10-10-10-10-10-3-----|
E|-6-6-6-6-6-6-6-6-6-6-6-6-6-6-6-7-8--8--8--8--8--8--8--8--1-----|  

  Verse
E|---------------------------------------------------------------|
B|-7---------5--------3b--------5--------------------------------|
G|-7---------5--------3b--------5--------------------------------| 
D|---------------------------------------------------------------|
A|----3-5-5----3-5-5-----3-5-5-----------------------------------|
E|----1-3-3----1-3-3-----1-3-3-----------------------------------|

  
E|---------------------------------------------------------------|
B|---------------------------------------------------------------|
G|---------------------------------------------------------------|  x 3
D|-5p3p0---------------------------------------------------------|
A|-------3-1--3-5-5----------------------------------------------|
E|------------1-3-3----------------------------------------------|


E|---------------------------------------------------------------|
B|---------------------------------------------------------------|
G|---------------------------------------------------------------|  x 4 
D|-5p3p0---------------------------------------------------------|
A|-------3-1--3-5-5-5-5------------------------------------------|
E|------------1-3-3-3-3------------------------------------------|


Chorus
E|---------------------------------------------------------------|
B|---------------------------------------------------------------|
G|---------------------------------------------------------------|  
D|---------------------------------------------------------------|
A|-8-8-8-8-8-8-8-8-8-8-8-8-8-8-8-9-10-10-10-10-10-10-10-10-3-----|
E|-6-6-6-6-6-6-6-6-6-6-6-6-6-6-6-7-8--8--8--8--8--8--8--8--1-----|  


Solo
E|---------------------------------------------------------------|
B|-5b-5b-5b-5b-5b-5-3-----3--------------------------------------|
G|-5b-5b-5b-5b-5b-5-3-5-3-3--------------------------------------|  x 8 
D|--------------------5-3----------------------------------------|
A|---------------------------------------------------------------|
E|---------------------------------------------------------------|


Chorus
E|---------------------------------------------------------------|
B|---------------------------------------------------------------|
G|---------------------------------------------------------------|  
D|---------------------------------------------------------------| x 2
A|-8-8-8-8-8-8-8-8-8-8-8-8-8-8-8-9-10-10-10-10-10-10-10-10-3-----|
E|-6-6-6-6-6-6-6-6-6-6-6-6-6-6-6-7-8--8--8--8--8--8--8--8--1-----|


  End
E|-----------|
B|-----------|
G|-----------|  
D|-----------|
A|-3-5-5-----|
E|-1-3-3-----|    
Добавлено: 22.07.2013
Другие материалы по этой песне:
  • Аккорды и текст

Страница создана 22.07.2013
http://primanota.ru/billy-talent/cold-turkey-chords.htm
Привет, Гость.
Предлагаем пройти революционный курс по гитаре.
Подарок от PrimaNota.Ru, забирай!