PrimaNota.ru - самый крупный в мире бесплатный архив песенных текстов, аккордов, табулатур и нот


Bijelo Dugme - Uspavanka Za Radmilu M - таба, видео

Регистрация Запомнить меня
Войти через:  Facebook Google Twitter Vk Yandex Mail.ru

Bijelo Dugme - Uspavanka Za Radmilu M - таба, видео

Печатать
Просмотров: 234
Uspavanka Za Radmilu M
Bijelo Dugme
Tabbed by Almir Nametak, mokra@starmo.co.uk
Nov 2010


E--0-2-3-5-7--7-8-7--7-5-5-7-5-----------|
B-----------8-7----------5-------1--1/3--|
G-------------7----------5-------0----0--|
D-------------------------------2-2-2/4--|
A----------------------------------------|
E--0----------7----------5---------------|

E--0-2-3-5-7--7-8-787-7-5-5-7-5-----------|
B-----------8-7-----------5-------1--1/3--|
G-------------7-----------5---------------|
D--------------------------------2-2-2/4--|
A-----------------------------------------|
E--0----------7-----------5---------------|

E--3-3-3-2-3-3/5-----0-3030------------------|
B--5-----3-------5/7-0-----0---2--------1--3-|
G--5-----2-----------0------0--3-------0---0-|
D--5-----0---------------------44-----2--2/4-|
A--3--------------------------2--232-0-------|
E--------------------0-----------------------|


E--2----------------------2--------------------|
B--3-----------1-----1----3-----------1-----1--|
G--2----------0-----0-----2----------0-----0---|
D--0--0-2-0--2--2--2--2---0--0-2-0--2--2--2--2-|
A---0-------3--------------0-------3-----------|
E-----------------3----------------------3-----|

E----------------------------------------------|
B-----0----------1--3------0----------1--3-----|
G----0-----3----0---0-----0-----3----0---0-----|
D---2-----4----2--2/4----2-----4----2--2/4-----|
A--------2--232--------------2--232------------|
E--0---0---------------0---0-------------------|

E---------------------------------12--|
B--3-5-3-0------------------------12--|
G----------2-0-2-4-2-0-2-4-020----12--|
D--0--------------------------4-------|
A--------------0-------2--------------|
E-------------------------------0-----|
Добавлено: 21.06.2012
Другие материалы по этой песне:

Страница создана 04.06.2012
http://primanota.ru/bijelo-dugme/uspavanka-za-radmilu-m-chords.htm
Привет, Гость.
Предлагаем пройти революционный курс по гитаре.
Подарок от PrimaNota.Ru, забирай!