PrimaNota.ru - самый крупный в мире бесплатный архив песенных текстов, аккордов, табулатур и нот


Big Data - Big Dater - таба, видео

Регистрация Запомнить меня
Войти через:  Facebook Google Twitter Vk Yandex Mail.ru

Big Data - Big Dater - таба, видео

Печатать
Просмотров: 148
Уроки эстрадного вокала в Санкт-Петербурге
-------------------------------------------------------------------------------
                             Big Dater (Intro) - Big Data
-------------------------------------------------------------------------------
Tabbed by: Sean 
E-mail: coolsean3463@gmail.com

Tuning: EADGBe

e|--6--------6--5-----------5--------6--5-----------7--------9--7-----------9---------11--9-----------------11|
B|--------8-----------8-----------5-----------5-----------7-----------7------------9-------------9------------|
G|-----7-----------7-----7-----6-----------6-----6-----8-----------8-----8-----10------------10-----10--12----|
D|------------------------------------------------------------------------------------------------------------|
A|------------------------------------------------------------------------------------------------------------|
E|------------------------------------------------------------------------------------------------------------|

e|------11--------------10----------8--10--8---------5--------6--5--------------------------------------------|
B|----------11--------------11----------------8--11--------7-----------7--------------------------------------|
G|--12----------12--10----------10----------------------7-----------7-----7-----------------------------------|
D|------------------------------------------------------------------------------------------------------------|
A|------------------------------------------------------------------------------------------------------------|
E|------------------------------------------------------------------------------------------------------------|

************************************

| /   slide up
| \   slide down
| h   hammer-on
| p   pull-off
| ~   vibrato
| +   harmonic
| x   Mute note
| b   Bend
| pb  Pre-bend
| br  Bend release
| pbr Pre-bend release
| brb Bend release bend

************************************
Добавлено: 04.11.2015
Вам также может быть интересно:
Другие материалы по этой песне:
  • Аккорды и текст

Страница создана 04.11.2015
http://primanota.ru/big-data/big-dater-chords.htm
Привет, Гость.
Предлагаем пройти революционный курс по гитаре.
Подарок от PrimaNota.Ru, забирай!