PrimaNota.ru - самый крупный в мире бесплатный архив песенных текстов, аккордов, табулатур и нот


Ben Harper - Having Wings - аккорды и текст, таба, видео

Регистрация Запомнить меня
Войти через:  Facebook Google Twitter Vk Yandex Mail.ru

Ben Harper - Having Wings - аккорды и текст, таба, видео

Печатать
Просмотров: 130
Having Wings
Ben Harper
Ben Harper & The Innocent Criminals - Having Wings
2007 Album:  Lifeline
Chords and Tab By:  Jeff Martin
Tuning - Standard

Intro Chords (This is all for a single acoustic)
Bm-C-G
Bm-Bm/Bbm/Am-G

Bm                               C                     G
I heard a street singer play a song I knew,
Bm         Bm/Bbm/Am           G
And it brought me closer to you.
Bm                               C                                     
  G/Am/Bm
I heard a street singer play a song I called my own,
                     Bm/Bbm/Am               G
That brought be to my childhood home.
        C      C/B     C/A   G                       
D/Dsus4/D
Did you     go       back from where you came?
        C   C/B   C/B         G              D/Dsus4/D
If I    get there will they have my name?
           C      C/B       C/A   G            D/Dsus4/D
If they don't I'll only have myself to blame.
       C  G       D/Dsus4/D
For all these things,
Am   C                              G
True happiness is having wings.
Bm                                        C                                 G
Life is a gury eyed, heavy hearted, whirlwind of a storm.
Bm              Bm/Bbm/Am                    G
Something they just hurt too much to cry.
Bm                                                     C               
                G     G/Am/Bm
Memories are like shadows, the light won't make them disappear
        Bm/Bbm/Am                            G
So I still see you smiling with your eyes.

So did you go back from where you came?
If I get there, would they have my name?
If they don't I'll only have myself to blame,
For all these things,
True happiness is having wings

Solo:
(Bend first note ¼ step)
|--------------------------------------------0-3-------|
|-3-333-5-----5---3-----7---7---6---5-----3-----3------|
|-2-222-5---------4-4/7-7-7---6---5----5/2-------2-----|
|----------5-5----5-5----------------------------------|
|------------------------------------------------------|
|------------------------------------------------------|

|--------7-----------------------------------------------------------------|
|---------7---5-8---3-------7-7-6-5-12-------------------------------------|
|----------7--5--7--4-5-6-7-7-6-5---12h14-12---12-----------12-------------|
|-7/9-------9-5---5-5-5-6-7-7-6-5------------14---12-h14-14-14-12----------|
|------------------------------------------------------------------14\10---|
|--------------------------------------------------------------------------|


Did you go back from where you came?
If I get there will they have my name?
If they don't I'll only have myself to blame.
For all these things
True happiness is having wings
True happiness is having wings
True happiness is having wings

Great Song… enjoy!  PEACE

Please post corrections
Добавлено: 06.05.2012
Другие материалы по этой песне:
  • Аккорды и текст

Страница создана 06.05.2012
http://primanota.ru/ben-harper/having-wings-chords.htm
Привет, Гость.
Предлагаем пройти революционный курс по гитаре.
Подарок от PrimaNota.Ru, забирай!