PrimaNota.ru - самый крупный в мире бесплатный архив песенных текстов, аккордов, табулатур и нот


Ben Cocks - Bring Us The Sun - таба, видео

Регистрация Запомнить меня
Войти через:  Facebook Google Twitter Vk Yandex Mail.ru

Ben Cocks - Bring Us The Sun - таба, видео

Печатать
Просмотров: 125
-------------------------------------------------------------------------------
                             Ben Cocks - Bring us the Sun ( Fingerstyle) 
-------------------------------------------------------------------------------
Tabbed by:mantschuri


Tuning:Standard
Capo: 3th Fret  

It's not perfect at all, but if you play a bit with the chords, it sounds okay.


Intro: 
  
    C       G       F      G      C       G       F        G
e|------------------------------------------------------------|
B|----1-1-------3-----1-1------1----1-1-----3-3-----1-1----0--|
G|----0-0-----0-------2-2----0------0-0-----0-0-----2-2----0--|
D|----2-2-----0-------3-3----0------2-2-----0-0-----3-3----0--|
A|--3-------2-------3------2------3-------2-------3--------2--|
E|------------------------------------------------------------|


Verse 1: 


   Take back your weather    bring me the skies     The day is so  bright I cannot open my eyes
e|------------------------------------------------------------------------------------------------|
B|----1-1------------------3-------1-1------------1---------1-1----------3-3---------1-1-------1--|
G|----0-0----------------0---------2-2----------0-----------0-0----------0-0---------2-2-----0----|
D|----2-2----------------0---------3-3----------0-----------2-2----------0-0---------3-3-----0----|
A|--3----------2---------------3-------------2----------3----------2---------------3-------2------|
E|------------------------------------------------------------------------------------------------|
  
   Day's like this    is where we found our love So please Mr.    weatherman     bring us the sun
e|---------------------------------------------------------------------------------------------------|
B|----1-1-----------3------------1-1-------------1---------1-1----------3-3---------1-1-----------1--|
G|----0-0---------0--------------2-2-----------0-----------0-0----------0-0---------2-2---------0----|
D|----2-2---------0--------------3-3-----------0-----------2-2----------0-0---------3-3---------0----|
A|--3---------2--------------3--------------2----------3----------2---------------3-----------2------|
E|---------------------------------------------------------------------------------------------------|


Chorus 1:

uuuhuuu-huu-hhuuu    uuuhuuu-huu-hhuuu

Guitar 1: 

e|---------------------------------------------------------------------------------------------------|
B|----1-1-----------3------------1-1-------------1---------1-1----------3-3---------1-1-----------1--|
G|----0-0---------0--------------2-2-----------0-----------0-0----------0-0---------2-2---------0----|
D|----2-2---------0--------------3-3-----------0-----------2-2----------0-0---------3-3---------0----|
A|--3---------2--------------3--------------2----------3----------2---------------3-----------2------|
E|---------------------------------------------------------------------------------------------------|

Guitar 2: ( Listen to the Xylophone Piano Sound )

e|-------x---------------x-3--33----------x-----------------x------------|
B|---1-1-x-1--11----3-3--x-0--00-----1-1--x-1--11------3-3--x-3-3p0-3----|
G|---0-0-x-0--00----0-0--x-----------2-2--x-2--22------0-0--x-0-0---0----| 
D|-------x---------------x----------------x-----------------x------------|
A|-3-----x-------2-------x--------3-------x---------2-------x------------|
E|-------x---------------x----------------x-----------------x------------|

uuuhuuu-huu-hhuuu    uuuhuuu-huu-hhuuu

Guitar 1: 

e|---------------------------------------------------------------------------------------------------|
B|----1-1-----------3------------1-1-------------1---------1-1----------3-3---------1-1-----------1--|
G|----0-0---------0--------------2-2-----------0-----------0-0----------0-0---------2-2---------0----|
D|----2-2---------0--------------3-3-----------0-----------2-2----------0-0---------3-3---------0----|
A|--3---------2--------------3--------------2----------3----------2---------------3-----------2------|
E|---------------------------------------------------------------------------------------------------|

Guitar 2: ( Listen to the Xylophone Piano Sound )

e|-------x---------------x-3--33----------x-----------------x------------|
B|---1-1-x-1--11----3-3--x-0--00-----1-1--x-1--11------3-3--x-3-3p0-3----|
G|---0-0-x-0--00----0-0--x-----------2-2--x-2--22------0-0--x-0-0---0----| 
D|-------x---------------x----------------x-----------------x------------|
A|-3-----x-------2-------x--------3-------x---------2-------x------------|
E|-------x---------------x----------------x-----------------x------------|

 

Verse 2:
And I said that all time will tell
That in love we hopelessly fell
And I'll challange anybody - call my bluff
Cause I'm so deeply and hopelessly in loved

Chorus 2:
hm-pa-param-pa-pa-ram-ram
hm-pa-param-pa-pa-ram-ram
hm-pa-param-pa-pa-ram-ram
hm-pa-param-pa-pa-ram-ram

Verse 3:
Sun on the river is glistening like boat
To jump in the water like the summer is of all both
We'll stay out here make him out to stop the sun
Till I, to shadows, plain all the way home
And I said that all time will tell
That in love we hopelessly fell
And I'll challange anybody - call my bluff
cause I'm so deeply and hopelessly in loved ...

....



************************************

| /   slide up
| \   slide down
| h   hammer-on
| p   pull-off
| ~   vibrato
| +   harmonic
| x   Mute note
| b   Bend
| pb  Pre-bend
| br  Bend release
| pbr Pre-bend release
| brb Bend release bend

************************************
Добавлено: 24.06.2016
Другие материалы по этой песне:
  • Аккорды и текст

Страница создана 24.06.2016
http://primanota.ru/ben-cocks/bring-us-sun-chords.htm
Привет, Гость.
Предлагаем пройти революционный курс по гитаре.
Подарок от PrimaNota.Ru, забирай!