PrimaNota.ru - самый крупный в мире бесплатный архив песенных текстов, аккордов, табулатур и нот


Before The Dawn - Closure - таба, видео

Регистрация Запомнить меня
Войти через:  Facebook Google Twitter Vk Yandex Mail.ru

Before The Dawn - Closure - таба, видео

Печатать
Просмотров: 658
Уроки эстрадного вокала в Санкт-Петербурге
Closure by Before the Dawn (starting at 1:25 distortion guitar)
Tuning - Standart (EADGBe)
h - hammer on
p - pull off
s - slide

figure 1 starts at 1:25
|e---------------------------------------------------|
|B-------------3-------------------------------------|
|G---3------3----3----2--------2--3----2h3p2---------|
|D----------------------------------------------3----|
|A---------------------------------------------------|
|E---------------------------------------------------|

figure 2 start at 1:30

|e-------------------------------------------------------------|
|B-----5--5------------------5--5-----5-h6-p5---------5--------|
|G-------------5--5-----5-------------------------5--------5---|
|D-------------------------------------------------------------|
|A-------------------------------------------------------------|
|E-------------------------------------------------------------|

play again figure 1

figure 3 starts at 1:39

|e--------------------------------------------------------------------|
|B--------------------------------------------------------------------|
|G--------------------------------------------------------------------|
|D-----2---------------------2---3---5---3---2---3---2h3p2-------2----|
|A-----------3---3---3---------------------------------------3--------|
|E--------------------------------------------------------------------|

play again figure 1

figure 4 starts at 1:49

|e-----------8------------8------------------------------------|
|B-----8--------8---6--------8---5---6---5---6-----------------|
|G---------------------------------------------------7---------|
|D-------------------------------------------------------------|
|A-------------------------------------------------------------|
|E-------------------------------------------------------------|

figure 5 starts at 1:52

|------------------------6----8---8s10----8-10-13---13----15-------|
|---------6----8-8-8-----------------------------------------------|
|----7-------------------------------------------------------------|
|------------------------------------------------------------------|
|------------------------------------------------------------------|
|------------------------------------------------------------------|

figure 6 starts at 1:59

|--15-15-15-12-12-12-13-13-13-10-10-10-12-12-12-8-8-8-10-10-10-6-8-6-------|
|----------------------------------------------------------------------8---|
|--------------------------------------------------------------------------|
|--------------------------------------------------------------------------|
|--------------------------------------------------------------------------|
|--------------------------------------------------------------------------|
(if you got problems with figure 6 try to use
pointer and pinky, or make your own scheme)

The part from 2:03
here are the 4 arpeggios that are played till the end of the song
|----------------------------------------------------------|
|----------------------------------------------------------|
|----------------------------------------------------------|
|---------------12-----------12-----------12-----------12--|
|------10--13-------10--13-------10--13-------10--13-------|
|----------------------------------------------------------|


|----------------------------------------------------------|
|----------------------------------------------------------|
|-------------10-----------10----------10-----------10-----|
|-----8--12--------8--12-------8--12--------8--12----------|
|----------------------------------------------------------|
|----------------------------------------------------------|

|----------------------------------------------------------|
|----------------------------------------------------------|
|------------10--------10-------9--10-------10-------10----|
|----10--12-------12--------12----------10-------10--------|
|----------------------------------------------------------|
|----------------------------------------------------------|

|----------------------------------------------------------|
|----------------------------------------------------------|
|--------9--12--9--12--9--10--12------12------12-----------|
|---10----------------------------10------10---------------|
|----------------------------------------------------------|
|----------------------------------------------------------|

by nirolfik
p.s. if someone can try to make the tab for 2nd arpeggios guitar i'd be glad
Добавлено: 26.06.2013
Вам также может быть интересно:
Другие материалы по этой песне:
  • Аккорды и текст

Страница создана 26.06.2013
http://primanota.ru/before-the-dawn/closure-chords.htm
Привет, Гость.
Предлагаем пройти революционный курс по гитаре.
Подарок от PrimaNota.Ru, забирай!