PrimaNota.ru - самый крупный в мире бесплатный архив песенных текстов, аккордов, табулатур и нот


Beck - Peaches & Cream - текст песни, таба, видео

Регистрация Запомнить меня
Войти через:  Facebook Google Twitter Vk Yandex Mail.ru

Beck - Peaches & Cream - текст песни, таба, видео

Печатать
Просмотров: 148
Авторы музыки: Beck Hansen
Авторы текста: Beck Hansen
                         Peaches and Cream
                          Midnite Vultures
                               Beck



---------------------------------6-------6--------6----------|
---------------------------9(11)---9(11)-----9-10---10-------|
-------------------------------------------------------------|
---6---6---6--4----------------------------------------------|
------------------------||-----------------------------------|
-4---4---4-------2-------------------------------------------|

-------------------------------------------------------------|
-------------------------------------------------------------|
----------6--------------------------------------------------|
-------------------------------------------------------------|
-------------------------------------------------------------|
-4--5--6-----------------------------------------------------|

------------------------------------14\----------------------|
------------------------/13~--/14~---------------------------|
----4(6)-----------------------------------------------------|
-------------------------------------------------------------|
-------------------------------------------------------------|
--4----------------------------------------------------------|

Don't tell your right hand baby
what your left hand do
you know those road check girls
will make your brown breath blue

ooh ooh oooh peaches & cream
you make a garbage man scream
such a dangerous dream
peaches & cream...

you look good in that sweater
and that aluminum crutch
I'm gonna let you down easy
I've got a delicate touch

ooh ooh oooh peaches & cream
you make a garbage man scream
come on girl it's a dream

you're a torn out page
from a best selling book
your home girls on the line
but your daddy's off the hook
where do we go now?

give those pious soldiers
another lollipop
cause we're on the good ship
menage a trois
peaches and cream
you make a garbage man scream
such a delicate thing

keep your lamplight trimmed and burning (x4)


(chorus over "keep your lamplight trimmed and burning")
Добавлено: 11.06.2013
Другие материалы по этой песне:
  • Аккорды и текст

Страница создана 17.03.2012
http://primanota.ru/beck/peaches-and-cream-chords.htm
Привет, Гость.
Предлагаем пройти революционный курс по гитаре.
Подарок от PrimaNota.Ru, забирай!